  0
SECTION
  2
HEADER
  9
$ACADVER
  1
AC1018
  9
$ACADMAINTVER
 70
    76
  9
$DWGCODEPAGE
  3
ANSI_1252
  9
$INSBASE
 10
0.0
 20
0.0
 30
0.0
  9
$EXTMIN
 10
-699.3846999999999
 20
73.42789999999999
 30
0.0
  9
$EXTMAX
 10
2940.0
 20
1968.13
 30
20.0
  9
$LIMMIN
 10
-699.385
 20
0.0
  9
$LIMMAX
 10
2970.0
 20
2100.0
  9
$ORTHOMODE
 70
     0
  9
$REGENMODE
 70
     1
  9
$FILLMODE
 70
     1
  9
$QTEXTMODE
 70
     0
  9
$MIRRTEXT
 70
     0
  9
$LTSCALE
 40
10.0
  9
$ATTMODE
 70
     1
  9
$TEXTSIZE
 40
0.2
  9
$TRACEWID
 40
0.05
  9
$TEXTSTYLE
  7
STANDARD
  9
$CLAYER
  8
LAYER_1
  9
$CELTYPE
  6
CONTINUOUS
  9
$CECOLOR
 62
   256
  9
$CELTSCALE
 40
1.0
  9
$DISPSILH
 70
     0
  9
$DIMSCALE
 40
1.0
  9
$DIMASZ
 40
0.18
  9
$DIMEXO
 40
0.0625
  9
$DIMDLI
 40
0.38
  9
$DIMRND
 40
0.0
  9
$DIMDLE
 40
0.0
  9
$DIMEXE
 40
0.18
  9
$DIMTP
 40
0.0
  9
$DIMTM
 40
0.0
  9
$DIMTXT
 40
0.18
  9
$DIMCEN
 40
0.09
  9
$DIMTSZ
 40
0.0
  9
$DIMTOL
 70
     0
  9
$DIMLIM
 70
     0
  9
$DIMTIH
 70
     1
  9
$DIMTOH
 70
     1
  9
$DIMSE1
 70
     0
  9
$DIMSE2
 70
     0
  9
$DIMTAD
 70
     0
  9
$DIMZIN
 70
     0
  9
$DIMBLK
  1

  9
$DIMASO
 70
     1
  9
$DIMSHO
 70
     1
  9
$DIMPOST
  1

  9
$DIMAPOST
  1

  9
$DIMALT
 70
     0
  9
$DIMALTD
 70
     2
  9
$DIMALTF
 40
25.4
  9
$DIMLFAC
 40
1.0
  9
$DIMTOFL
 70
     0
  9
$DIMTVP
 40
0.0
  9
$DIMTIX
 70
     0
  9
$DIMSOXD
 70
     0
  9
$DIMSAH
 70
     0
  9
$DIMBLK1
  1

  9
$DIMBLK2
  1

  9
$DIMSTYLE
  2
Standard
  9
$DIMCLRD
 70
     0
  9
$DIMCLRE
 70
     0
  9
$DIMCLRT
 70
     0
  9
$DIMTFAC
 40
1.0
  9
$DIMGAP
 40
0.09
  9
$DIMJUST
 70
     0
  9
$DIMSD1
 70
     0
  9
$DIMSD2
 70
     0
  9
$DIMTOLJ
 70
     1
  9
$DIMTZIN
 70
     0
  9
$DIMALTZ
 70
     0
  9
$DIMALTTZ
 70
     0
  9
$DIMUPT
 70
     0
  9
$DIMDEC
 70
     4
  9
$DIMTDEC
 70
     4
  9
$DIMALTU
 70
     2
  9
$DIMALTTD
 70
     2
  9
$DIMTXSTY
  7
STANDARD
  9
$DIMAUNIT
 70
     0
  9
$DIMADEC
 70
     0
  9
$DIMALTRND
 40
0.0
  9
$DIMAZIN
 70
     0
  9
$DIMDSEP
 70
    46
  9
$DIMATFIT
 70
     3
  9
$DIMFRAC
 70
     0
  9
$DIMLDRBLK
  1

  9
$DIMLUNIT
 70
     2
  9
$DIMLWD
 70
    -2
  9
$DIMLWE
 70
    -2
  9
$DIMTMOVE
 70
     0
  9
$LUNITS
 70
     2
  9
$LUPREC
 70
     4
  9
$SKETCHINC
 40
0.1
  9
$FILLETRAD
 40
0.0
  9
$AUNITS
 70
     0
  9
$AUPREC
 70
     0
  9
$MENU
  1
.
  9
$ELEVATION
 40
0.0
  9
$PELEVATION
 40
0.0
  9
$THICKNESS
 40
0.0
  9
$LIMCHECK
 70
     0
  9
$CHAMFERA
 40
100.0
  9
$CHAMFERB
 40
100.0
  9
$CHAMFERC
 40
0.0
  9
$CHAMFERD
 40
0.0
  9
$SKPOLY
 70
     0
  9
$TDCREATE
 40
2455201.398650348
  9
$TDUCREATE
 40
2455201.398650348
  9
$TDUPDATE
 40
2455201.398944583
  9
$TDUUPDATE
 40
2455201.398944583
  9
$TDINDWG
 40
0.0002944213
  9
$TDUSRTIMER
 40
0.0002944213
  9
$USRTIMER
 70
     1
  9
$ANGBASE
 50
0.0
  9
$ANGDIR
 70
     0
  9
$PDMODE
 70
     0
  9
$PDSIZE
 40
0.0
  9
$PLINEWID
 40
0.0
  9
$SPLFRAME
 70
     0
  9
$SPLINETYPE
 70
     6
  9
$SPLINESEGS
 70
     8
  9
$HANDSEED
  5
1B1C
  9
$SURFTAB1
 70
     6
  9
$SURFTAB2
 70
     6
  9
$SURFTYPE
 70
     6
  9
$SURFU
 70
     6
  9
$SURFV
 70
     6
  9
$UCSBASE
  2

  9
$UCSNAME
  2

  9
$UCSORG
 10
0.0
 20
0.0
 30
0.0
  9
$UCSXDIR
 10
1.0
 20
0.0
 30
0.0
  9
$UCSYDIR
 10
0.0
 20
1.0
 30
0.0
  9
$UCSORTHOREF
  2

  9
$UCSORTHOVIEW
 70
     0
  9
$UCSORGTOP
 10
0.0
 20
0.0
 30
0.0
  9
$UCSORGBOTTOM
 10
0.0
 20
0.0
 30
0.0
  9
$UCSORGLEFT
 10
0.0
 20
0.0
 30
0.0
  9
$UCSORGRIGHT
 10
0.0
 20
0.0
 30
0.0
  9
$UCSORGFRONT
 10
0.0
 20
0.0
 30
0.0
  9
$UCSORGBACK
 10
0.0
 20
0.0
 30
0.0
  9
$PUCSBASE
  2

  9
$PUCSNAME
  2

  9
$PUCSORG
 10
0.0
 20
0.0
 30
0.0
  9
$PUCSXDIR
 10
1.0
 20
0.0
 30
0.0
  9
$PUCSYDIR
 10
0.0
 20
1.0
 30
0.0
  9
$PUCSORTHOREF
  2

  9
$PUCSORTHOVIEW
 70
     0
  9
$PUCSORGTOP
 10
0.0
 20
0.0
 30
0.0
  9
$PUCSORGBOTTOM
 10
0.0
 20
0.0
 30
0.0
  9
$PUCSORGLEFT
 10
0.0
 20
0.0
 30
0.0
  9
$PUCSORGRIGHT
 10
0.0
 20
0.0
 30
0.0
  9
$PUCSORGFRONT
 10
0.0
 20
0.0
 30
0.0
  9
$PUCSORGBACK
 10
0.0
 20
0.0
 30
0.0
  9
$USERI1
 70
     0
  9
$USERI2
 70
     0
  9
$USERI3
 70
     0
  9
$USERI4
 70
     0
  9
$USERI5
 70
     0
  9
$USERR1
 40
0.0
  9
$USERR2
 40
0.0
  9
$USERR3
 40
0.0
  9
$USERR4
 40
0.0
  9
$USERR5
 40
0.0
  9
$WORLDVIEW
 70
     1
  9
$SHADEDGE
 70
     3
  9
$SHADEDIF
 70
    70
  9
$TILEMODE
 70
     0
  9
$MAXACTVP
 70
    64
  9
$PINSBASE
 10
0.0
 20
0.0
 30
0.0
  9
$PLIMCHECK
 70
     0
  9
$PEXTMIN
 10
1.131083377702967
 20
0.783083350639644
 30
0.0
  9
$PEXTMAX
 10
10.17975039932671
 20
7.047750155756792
 30
0.0
  9
$PLIMMIN
 10
-0.1879161924827756
 20
-0.1879166618106872
  9
$PLIMMAX
 10
11.50541650967335
 20
8.080416833321878
  9
$UNITMODE
 70
     0
  9
$VISRETAIN
 70
     1
  9
$PLINEGEN
 70
     0
  9
$PSLTSCALE
 70
     1
  9
$TREEDEPTH
 70
  3020
  9
$CMLSTYLE
  2
Standard
  9
$CMLJUST
 70
     0
  9
$CMLSCALE
 40
1.0
  9
$PROXYGRAPHICS
 70
     1
  9
$MEASUREMENT
 70
     0
  9
$CELWEIGHT
370
    -1
  9
$ENDCAPS
280
     0
  9
$JOINSTYLE
280
     0
  9
$LWDISPLAY
290
     0
  9
$INSUNITS
 70
     0
  9
$HYPERLINKBASE
  1

  9
$STYLESHEET
  1

  9
$XEDIT
290
     1
  9
$CEPSNTYPE
380
     0
  9
$PSTYLEMODE
290
     1
  9
$FINGERPRINTGUID
  2
{D596164E-E9F7-483D-8974-20AAD51A8B95}
  9
$VERSIONGUID
  2
{C779121A-27DB-40FD-9318-6EA766A84713}
  9
$EXTNAMES
290
     1
  9
$PSVPSCALE
 40
0.0
  9
$OLESTARTUP
290
     0
  9
$SORTENTS
280
   127
  9
$INDEXCTL
280
     0
  9
$HIDETEXT
280
     0
  9
$XCLIPFRAME
290
     0
  9
$HALOGAP
280
     0
  9
$OBSCOLOR
 70
   257
  9
$OBSLTYPE
280
     0
  9
$INTERSECTIONDISPLAY
280
     0
  9
$INTERSECTIONCOLOR
 70
   257
  9
$DIMASSOC
280
     1
  9
$PROJECTNAME
  1

  0
ENDSEC
  0
SECTION
  2
CLASSES
  0
CLASS
  1
ACDBDICTIONARYWDFLT
  2
AcDbDictionaryWithDefault
  3
ObjectDBX Classes
 90
        0
 91
        1
280
     0
281
     0
  0
CLASS
  1
TABLESTYLE
  2
AcDbTableStyle
  3
ObjectDBX Classes
 90
     2047
 91
        1
280
     0
281
     0
  0
CLASS
  1
DICTIONARYVAR
  2
AcDbDictionaryVar
  3
ObjectDBX Classes
 90
        0
 91
        1
280
     0
281
     0
  0
ENDSEC
  0
SECTION
  2
TABLES
  0
TABLE
  2
VPORT
  5
8
330
0
100
AcDbSymbolTable
 70
     2
  0
VPORT
  5
1B13
330
8
100
AcDbSymbolTableRecord
100
AcDbViewportTableRecord
  2
*Active
 70
     0
 10
0.0
 20
0.0
 11
1.0
 21
1.0
 12
8.476953907815634
 22
4.5
 13
0.0
 23
0.0
 14
1.0
 24
1.0
 15
0.0
 25
0.0
 16
0.0
 26
0.0
 36
1.0
 17
0.0
 27
0.0
 37
0.0
 40
9.000000000000001
 41
1.88376753507014
 42
50.0
 43
0.0
 44
0.0
 50
0.0
 51
0.0
 71
     0
 72
   100
 73
     1
 74
     1
 75
     0
 76
     0
 77
     0
 78
     0
281
     0
 65
     1
110
0.0
120
0.0
130
0.0
111
1.0
121
0.0
131
0.0
112
0.0
122
1.0
132
0.0
 79
     0
146
0.0
  0
ENDTAB
  0
TABLE
  2
LTYPE
  5
5
330
0
100
AcDbSymbolTable
 70
    13
  0
LTYPE
  5
13
330
5
100
AcDbSymbolTableRecord
100
AcDbLinetypeTableRecord
  2
ByBlock
 70
     0
  3

 72
    65
 73
     0
 40
0.0
  0
LTYPE
  5
14
330
5
100
AcDbSymbolTableRecord
100
AcDbLinetypeTableRecord
  2
ByLayer
 70
     0
  3

 72
    65
 73
     0
 40
0.0
  0
LTYPE
  5
15
330
5
100
AcDbSymbolTableRecord
100
AcDbLinetypeTableRecord
  2
CONTINUOUS
 70
     0
  3
Solid line
 72
    65
 73
     0
 40
0.0
  0
LTYPE
  5
27
330
5
100
AcDbSymbolTableRecord
100
AcDbLinetypeTableRecord
  2
DOT
 70
     0
  3
............................................
 72
    65
 73
     2
 40
0.25
 49
0.0
 74
     0
 49
-0.25
 74
     0
  0
LTYPE
  5
28
330
5
100
AcDbSymbolTableRecord
100
AcDbLinetypeTableRecord
  2
HIDDEN
 70
     0
  3
_ _ _ _ _ _ _ _ _ _ _ _ _ _ _ _ _ _ _ _ _ _ 
 72
    65
 73
     2
 40
0.375
 49
0.25
 74
     0
 49
-0.125
 74
     0
  0
LTYPE
  5
29
330
5
100
AcDbSymbolTableRecord
100
AcDbLinetypeTableRecord
  2
TSLONGDASH
 70
     0
  3
__ __ __ __ __ __ __ __ __ __ __ __ __ __ _ 
 72
    65
 73
     2
 40
1.28
 49
1.0
 74
     0
 49
-0.28
 74
     0
  0
LTYPE
  5
2A
330
5
100
AcDbSymbolTableRecord
100
AcDbLinetypeTableRecord
  2
TSDASHDOT
 70
     0
  3
______ . ______ . ______ . ______ . ______ .
 72
    65
 73
     4
 40
1.28
 49
1.0
 74
     0
 49
-0.14
 74
     0
 49
0.0
 74
     0
 49
-0.14
 74
     0
  0
LTYPE
  5
2B
330
5
100
AcDbSymbolTableRecord
100
AcDbLinetypeTableRecord
  2
TSCENTER
 70
     0
  3
______ _ ______ _ ______ _ ______ _ ______ _
 72
    65
 73
     4
 40
2.0
 49
1.5
 74
     0
 49
-0.18
 74
     0
 49
0.14
 74
     0
 49
-0.18
 74
     0
  0
LTYPE
  5
2C
330
5
100
AcDbSymbolTableRecord
100
AcDbLinetypeTableRecord
  2
TSPHANTOM
 70
     0
  3
_____ _ _ _____ _ _ _____ _ _ _____ _ _ ____
 72
    65
 73
     6
 40
2.5
 49
1.629999999999999
 74
     0
 49
-0.19
 74
     0
 49
0.15
 74
     0
 49
-0.19
 74
     0
 49
0.15
 74
     0
 49
-0.19
 74
     0
  0
LTYPE
  5
2D
330
5
100
AcDbSymbolTableRecord
100
AcDbLinetypeTableRecord
  2
DASHED
 70
     0
  3
__ __ __ __ __ __ __ __ __ __ __ __ __ __ __
 72
    65
 73
     2
 40
0.75
 49
0.5
 74
     0
 49
-0.25
 74
     0
  0
LTYPE
  5
2E
330
5
100
AcDbSymbolTableRecord
100
AcDbLinetypeTableRecord
  2
CENTER
 70
     0
  3
____ _ ____ _ ____ _ ____ _ ____ _ ____ _ __
 72
    65
 73
     4
 40
2.0
 49
1.25
 74
     0
 49
-0.25
 74
     0
 49
0.25
 74
     0
 49
-0.25
 74
     0
  0
LTYPE
  5
2F
330
5
100
AcDbSymbolTableRecord
100
AcDbLinetypeTableRecord
  2
PHANTOM
 70
     0
  3
_____ _ _ _____ _ _ _____ _ _ _____ _ _ ____
 72
    65
 73
     6
 40
2.5
 49
1.25
 74
     0
 49
-0.25
 74
     0
 49
0.25
 74
     0
 49
-0.25
 74
     0
 49
0.25
 74
     0
 49
-0.25
 74
     0
  0
LTYPE
  5
30
330
5
100
AcDbSymbolTableRecord
100
AcDbLinetypeTableRecord
  2
DASHDOT
 70
     0
  3
__ . __ . __ . __ . __ . __ . __ . __ . __ .
 72
    65
 73
     4
 40
1.0
 49
0.5
 74
     0
 49
-0.25
 74
     0
 49
0.0
 74
     0
 49
-0.25
 74
     0
  0
LTYPE
  5
31
330
5
100
AcDbSymbolTableRecord
100
AcDbLinetypeTableRecord
  2
BORDER
 70
     0
  3
__ __ . __ __ . __ __ . __ __ . __ __ . __ _
 72
    65
 73
     6
 40
1.75
 49
0.5
 74
     0
 49
-0.25
 74
     0
 49
0.5
 74
     0
 49
-0.25
 74
     0
 49
0.0
 74
     0
 49
-0.25
 74
     0
  0
LTYPE
  5
32
330
5
100
AcDbSymbolTableRecord
100
AcDbLinetypeTableRecord
  2
DIVIDE
 70
     0
  3
__ . . __ . . __ . . __ . . __ . . __ . . __
 72
    65
 73
     6
 40
1.25
 49
0.5
 74
     0
 49
-0.25
 74
     0
 49
0.0
 74
     0
 49
-0.25
 74
     0
 49
0.0
 74
     0
 49
-0.25
 74
     0
  0
ENDTAB
  0
TABLE
  2
LAYER
  5
2
330
0
100
AcDbSymbolTable
 70
     4
  0
LAYER
  5
10
330
2
100
AcDbSymbolTableRecord
100
AcDbLayerTableRecord
  2
0
 70
     0
 62
     7
  6
CONTINUOUS
370
    -3
390
F
  0
LAYER
  5
26
330
2
100
AcDbSymbolTableRecord
100
AcDbLayerTableRecord
  2
LAYER_1
 70
     0
 62
     7
  6
CONTINUOUS
370
    -3
390
F
  0
LAYER
  5
33
330
2
100
AcDbSymbolTableRecord
100
AcDbLayerTableRecord
  2
LAYER_2
 70
     0
 62
     7
  6
CONTINUOUS
370
    -3
390
F
  0
LAYER
  5
34
330
2
100
AcDbSymbolTableRecord
100
AcDbLayerTableRecord
  2
LAYER_3
 70
     0
 62
     7
  6
CONTINUOUS
370
    -3
390
F
  0
ENDTAB
  0
TABLE
  2
STYLE
  5
3
330
0
100
AcDbSymbolTable
 70
     1
  0
STYLE
  5
11
330
3
100
AcDbSymbolTableRecord
100
AcDbTextStyleTableRecord
  2
STANDARD
 70
     0
 40
0.0
 41
1.0
 50
0.0
 71
     0
 42
0.2
  3
txt
  4

  0
ENDTAB
  0
TABLE
  2
VIEW
  5
6
330
0
100
AcDbSymbolTable
 70
     0
  0
ENDTAB
  0
TABLE
  2
UCS
  5
7
330
0
100
AcDbSymbolTable
 70
     0
  0
ENDTAB
  0
TABLE
  2
APPID
  5
9
330
0
100
AcDbSymbolTable
 70
     2
  0
APPID
  5
12
330
9
100
AcDbSymbolTableRecord
100
AcDbRegAppTableRecord
  2
ACAD
 70
     0
  0
APPID
  5
1B17
330
9
100
AcDbSymbolTableRecord
100
AcDbRegAppTableRecord
  2
ACAD_PSEXT
 70
     0
  0
ENDTAB
  0
TABLE
  2
DIMSTYLE
  5
A
330
0
100
AcDbSymbolTable
 70
     1
100
AcDbDimStyleTable
 71
     0
  0
DIMSTYLE
105
1B11
330
A
100
AcDbSymbolTableRecord
100
AcDbDimStyleTableRecord
  2
Standard
 70
     0
340
11
  0
ENDTAB
  0
TABLE
  2
BLOCK_RECORD
  5
1
330
0
100
AcDbSymbolTable
 70
     0
  0
BLOCK_RECORD
  5
22
330
1
100
AcDbSymbolTableRecord
100
AcDbBlockTableRecord
  2
*Model_Space
340
25
  0
BLOCK_RECORD
  5
1E
330
1
100
AcDbSymbolTableRecord
100
AcDbBlockTableRecord
  2
*Paper_Space
340
21
  0
ENDTAB
  0
ENDSEC
  0
SECTION
  2
BLOCKS
  0
BLOCK
  5
23
330
22
100
AcDbEntity
  8
0
100
AcDbBlockBegin
  2
*Model_Space
 70
     0
 10
0.0
 20
0.0
 30
0.0
  3
*Model_Space
  1

  0
ENDBLK
  5
24
330
22
100
AcDbEntity
  8
0
100
AcDbBlockEnd
  0
BLOCK
  5
1F
330
1E
100
AcDbEntity
 67
     1
  8
0
100
AcDbBlockBegin
  2
*Paper_Space
 70
     0
 10
0.0
 20
0.0
 30
0.0
  3
*Paper_Space
  1

  0
ENDBLK
  5
20
330
1E
100
AcDbEntity
 67
     1
  8
0
100
AcDbBlockEnd
  0
ENDSEC
  0
SECTION
  2
ENTITIES
  0
LWPOLYLINE
  5
37
330
22
100
AcDbEntity
  8
LAYER_1
  6
Continuous
 62
     7
100
AcDbPolyline
 90
        5
 70
   129
 43
0.0
 10
300.0
 20
500.0
 10
2700.0
 20
500.0
 10
2700.0
 20
1700.0
 10
300.0
 20
1700.0
 10
300.0
 20
500.0
  0
LINE
  5
3E
330
22
100
AcDbEntity
  8
LAYER_1
  6
Continuous
 62
     7
100
AcDbLine
 10
300.0
 20
900.0
 30
0.0
 11
2700.0
 21
900.0
 31
0.0
  0
LINE
  5
3F
330
22
100
AcDbEntity
  8
LAYER_1
  6
Continuous
 62
     7
100
AcDbLine
 10
1100.0
 20
500.0
 30
0.0
 11
1100.0
 21
1700.0
 31
0.0
  0
LINE
  5
40
330
22
100
AcDbEntity
  8
LAYER_1
  6
Continuous
 62
     7
100
AcDbLine
 10
1900.0
 20
500.0
 30
0.0
 11
1900.0
 21
1700.0
 31
0.0
  0
LINE
  5
41
330
22
100
AcDbEntity
  8
LAYER_1
  6
Continuous
 62
     7
100
AcDbLine
 10
300.0
 20
1100.0
 30
0.0
 11
2700.0
 21
1100.0
 31
0.0
  0
CIRCLE
  5
42
330
22
100
AcDbEntity
  8
LAYER_1
  6
Continuous
 62
     7
100
AcDbCircle
 10
1900.0
 20
900.0
 30
0.0
 40
400.0
  0
CIRCLE
  5
43
330
22
100
AcDbEntity
  8
LAYER_1
  6
Continuous
 62
     7
100
AcDbCircle
 10
1100.0
 20
1100.0
 30
0.0
 40
600.0
  0
CIRCLE
  5
44
330
22
100
AcDbEntity
  8
LAYER_1
  6
Continuous
 62
     7
100
AcDbCircle
 10
500.0
 20
1500.0
 30
0.0
 40
100.0
  0
CIRCLE
  5
45
330
22
100
AcDbEntity
  8
LAYER_1
  6
Continuous
 62
     7
100
AcDbCircle
 10
500.0
 20
1500.0
 30
0.0
 40
200.0
  0
CIRCLE
  5
46
330
22
100
AcDbEntity
  8
LAYER_1
  6
Continuous
 62
     7
100
AcDbCircle
 10
-99.3847
 20
1138.42
 30
0.0
 40
600.0
  0
LINE
  5
47
330
22
100
AcDbEntity
  8
LAYER_1
  6
Continuous
 62
     7
100
AcDbLine
 10
300.0
 20
1200.0
 30
0.0
 11
2700.0
 21
1200.0
 31
0.0
  0
LINE
  5
48
330
22
100
AcDbEntity
  8
LAYER_1
  6
Continuous
 62
     7
100
AcDbLine
 39
20.0
 10
1101.86
 20
500.475
 30
0.0
 11
1896.06
 21
500.475
 31
0.0
  0
LINE
  5
49
330
22
100
AcDbEntity
  8
LAYER_1
  6
Continuous
 62
     7
100
AcDbLine
 10
300.0
 20
700.0
 30
0.0
 11
2700.0
 21
700.0
 31
0.0
  0
LINE
  5
4A
330
22
100
AcDbEntity
  8
LAYER_1
  6
Continuous
 62
     7
100
AcDbLine
 10
300.0
 20
1600.0
 30
0.0
 11
2700.0
 21
1600.0
 31
0.0
  0
LINE
  5
4B
330
22
100
AcDbEntity
  8
LAYER_1
  6
Continuous
 62
     7
100
AcDbLine
 10
1200.0
 20
1700.0
 30
0.0
 11
1200.0
 21
500.0
 31
0.0
  0
ARC
  5
4C
330
22
100
AcDbEntity
  8
LAYER_1
  6
Continuous
 62
     7
100
AcDbCircle
 39
20.0
 10
497.9719999999999
 20
1500.54
 30
0.0
 40
204.032
100
AcDbArc
 50
32.3489
 51
264.871
  0
ARC
  5
4D
330
22
100
AcDbEntity
  8
LAYER_1
  6
Continuous
 62
     7
100
AcDbCircle
 39
20.0
 10
104.689
 20
1157.02
 30
0.0
 40
397.95
100
AcDbArc
 50
354.6560000000001
 51
20.6453
  0
ARC
  5
4E
330
22
100
AcDbEntity
  8
LAYER_1
  6
Continuous
 62
     7
100
AcDbCircle
 39
20.0
 10
1112.81
 20
1109.62
 30
0.0
 40
609.2979999999999
100
AcDbArc
 50
179.277
 51
268.721
  0
ARC
  5
4F
330
22
100
AcDbEntity
  8
LAYER_1
  6
Continuous
 62
     7
100
AcDbCircle
 39
20.0
 10
722.5039999999999
 20
1100.0
 30
0.0
 40
500.0
100
AcDbArc
 50
129.955
 51
130.882
  0
ARC
  5
50
330
22
100
AcDbEntity
  8
LAYER_1
  6
Continuous
 62
     7
100
AcDbCircle
 39
20.0
 10
722.5039999999999
 20
1100.0
 30
0.0
 40
500.0
100
AcDbArc
 50
142.663
 51
143.355
  0
ARC
  5
51
330
22
100
AcDbEntity
  8
LAYER_1
  6
Continuous
 62
     7
100
AcDbCircle
 39
20.0
 10
722.5039999999999
 20
1100.0
 30
0.0
 40
500.0
100
AcDbArc
 50
274.939
 51
275.993
  0
CIRCLE
  5
52
330
22
100
AcDbEntity
  8
LAYER_1
  6
Continuous
 62
     7
100
AcDbCircle
 10
1700.0
 20
1300.0
 30
0.0
 40
400.0
  0
CIRCLE
  5
53
330
22
100
AcDbEntity
  8
LAYER_1
  6
Continuous
 62
     7
100
AcDbCircle
 10
2550.0
 20
1300.0
 30
0.0
 40
150.0
  0
CIRCLE
  5
54
330
22
100
AcDbEntity
  8
LAYER_1
  6
Continuous
 62
     7
100
AcDbCircle
 10
2550.0
 20
1300.0
 30
0.0
 40
75.0
  0
ARC
  5
55
330
22
100
AcDbEntity
  8
LAYER_1
  6
Continuous
 62
     7
100
AcDbCircle
 10
2733.95
 20
821.5010000000001
 30
0.0
 40
437.64
100
AcDbArc
 50
111.029
 51
174.623
  0
ARC
  5
56
330
22
100
AcDbEntity
  8
LAYER_1
  6
Continuous
 62
     7
100
AcDbCircle
 10
2548.31
 20
780.003
 30
0.0
 40
595.0
100
AcDbArc
 50
89.8137
 51
148.492
  0
ARC
  5
57
330
22
100
AcDbEntity
  8
LAYER_1
  6
Continuous
 62
     7
100
AcDbCircle
 39
20.0
 10
2550.0
 20
1300.0
 30
0.0
 40
150.0
100
AcDbArc
 50
238.598
 51
156.745
  0
ARC
  5
58
330
22
100
AcDbEntity
  8
LAYER_1
  6
Continuous
 62
     7
100
AcDbCircle
 39
20.0
 10
2733.95
 20
821.5010000000001
 30
0.0
 40
437.64
100
AcDbArc
 50
126.792
 51
174.623
  0
ARC
  5
59
330
22
100
AcDbEntity
  8
LAYER_1
  6
Continuous
 62
     7
100
AcDbCircle
 39
20.0
 10
1900.0
 20
900.0
 30
0.0
 40
400.0
100
AcDbArc
 50
270.0
 51
354.623
  0
ARC
  5
5A
330
22
100
AcDbEntity
  8
LAYER_1
  6
Continuous
 62
     7
100
AcDbCircle
 39
20.0
 10
2549.440000000001
 20
777.875
 30
0.0
 40
597.33
100
AcDbArc
 50
103.284
 51
147.366
  0
LINE
  5
5B
330
22
100
AcDbEntity
  8
LAYER_1
  6
Continuous
 62
     7
100
AcDbLine
 39
20.0
 10
1700.0
 20
900.0
 30
0.0
 11
1300.0
 21
900.0
 31
0.0
  0
LINE
  5
5C
330
22
100
AcDbEntity
  8
LAYER_1
  6
Continuous
 62
     7
100
AcDbLine
 39
20.0
 10
500.0
 20
1400.0
 30
0.0
 11
1100.0
 21
500.0
 31
0.0
  0
LINE
  5
5D
330
22
100
AcDbEntity
  8
LAYER_1
  6
Continuous
 62
     7
100
AcDbLine
 39
20.0
 10
2400.0
 20
1200.0
 30
0.0
 11
1900.0
 21
500.0
 31
0.0
  0
LINE
  5
5E
330
22
100
AcDbEntity
  8
LAYER_1
  6
Continuous
 62
     7
100
AcDbLine
 39
20.0
 10
1300.0
 20
900.0
 30
0.0
 11
700.0
 21
900.0
 31
0.0
  0
LINE
  5
5F
330
22
100
AcDbEntity
  8
LAYER_1
  6
Continuous
 62
     7
100
AcDbLine
 10
700.0
 20
1700.0
 30
0.0
 11
700.0
 21
500.0
 31
0.0
  0
LINE
  5
60
330
22
100
AcDbEntity
  8
LAYER_1
  6
Continuous
 62
     7
100
AcDbLine
 10
700.0
 20
1500.0
 30
0.0
 11
2700.0
 21
1500.0
 31
0.0
  0
LINE
  5
61
330
22
100
AcDbEntity
  8
LAYER_1
  6
Continuous
 62
     7
100
AcDbLine
 10
700.0
 20
1400.0
 30
0.0
 11
2700.0
 21
1400.0
 31
0.0
  0
CIRCLE
  5
62
330
22
100
AcDbEntity
  8
LAYER_1
  6
Continuous
 62
     7
100
AcDbCircle
 10
1029.18
 20
1100.0
 30
0.0
 40
300.0
  0
CIRCLE
  5
63
330
22
100
AcDbEntity
  8
LAYER_1
  6
Continuous
 62
     7
100
AcDbCircle
 10
887.298
 20
1600.0
 30
0.0
 40
200.0
  0
ARC
  5
64
330
22
100
AcDbEntity
  8
LAYER_1
  6
Continuous
 62
     7
100
AcDbCircle
 39
20.0
 10
885.546
 20
1597.32
 30
0.0
 40
196.794
100
AcDbArc
 50
193.471
 51
271.317
  0
ARC
  5
65
330
22
100
AcDbEntity
  8
LAYER_1
  6
Continuous
 62
     7
100
AcDbCircle
 39
20.0
 10
1033.41
 20
1106.05
 30
0.0
 40
291.931
100
AcDbArc
 50
22.5295
 51
91.11349999999999
  0
ARC
  5
66
330
22
100
AcDbEntity
  8
LAYER_1
  6
Continuous
 62
     7
100
AcDbCircle
 39
20.0
 10
1700.079999999999
 20
1307.14
 30
0.0
 40
406.9259999999999
100
AcDbArc
 50
192.667
 51
329.2
  0
LINE
  5
67
330
22
100
AcDbEntity
  8
LAYER_1
  6
Continuous
 62
     7
100
AcDbLine
 39
20.0
 10
892.717
 20
1397.93
 30
0.0
 11
1030.38
 21
1392.63
 31
0.0
  0
LINE
  5
68
330
22
100
AcDbEntity
  8
LAYER_1
  6
Continuous
 62
     7
100
AcDbLine
 39
20.0
 10
678.2819999999999
 20
1607.07
 30
0.0
 11
691.518
 21
1554.12
 31
0.0
  0
LINE
  5
69
330
22
100
AcDbEntity
  8
LAYER_1
  6
Continuous
 62
     7
100
AcDbLine
 39
20.0
 10
1100.0
 20
1300.0
 30
0.0
 11
1100.0
 21
900.0
 31
0.0
  0
LINE
  5
6A
330
22
100
AcDbEntity
  8
LAYER_1
  6
Continuous
 62
     7
100
AcDbLine
 39
20.0
 10
1500.0
 20
900.0
 30
0.0
 11
1500.0
 21
500.0
 31
0.0
  0
LINE
  5
6B
330
22
100
AcDbEntity
  8
LAYER_1
  6
Continuous
 62
     7
100
AcDbLine
 10
887.298
 20
1600.0
 30
0.0
 11
1142.43
 21
1942.93
 31
0.0
  0
LINE
  5
6C
330
22
100
AcDbEntity
  8
LAYER_1
  6
Continuous
 62
     7
100
AcDbLine
 10
1142.43
 20
1942.93
 30
0.0
 11
1192.43
 21
1942.93
 31
0.0
  0
LWPOLYLINE
  5
6D
330
22
100
AcDbEntity
  8
LAYER_1
  6
Continuous
 62
     7
100
AcDbPolyline
 90
        4
 70
   129
 43
0.0
 10
1006.68
 20
1760.46
 10
988.7389999999999
 20
1724.71
 10
977.594
 20
1733.0
 10
1006.68
 20
1760.46
  0
LWPOLYLINE
  5
73
330
22
100
AcDbEntity
  8
LAYER_1
  6
Continuous
 62
     1
100
AcDbPolyline
 90
       24
 70
   129
 43
0.0
 10
1222.92
 20
1917.93
 10
1222.92
 20
1967.93
 10
1245.09
 20
1967.93
 10
1255.26
 20
1966.58
 10
1258.38
 20
1964.72
 10
1260.81
 20
1961.82
 10
1262.37
 20
1958.23
 10
1262.89
 20
1954.28
 10
1262.03
 20
1949.38
 10
1259.45
 20
1945.31
 10
1255.07
 20
1942.33
 10
1248.81
 20
1940.67
 10
1252.8
 20
1938.18
 10
1258.29
 20
1931.53
 10
1266.99
 20
1917.93
 10
1258.67
 20
1917.93
 10
1252.05
 20
1928.33
 10
1247.27
 20
1935.22
 10
1243.91
 20
1938.56
 10
1240.9
 20
1939.89
 10
1237.21
 20
1940.13
 10
1229.54
 20
1940.13
 10
1229.54
 20
1917.93
 10
1222.92
 20
1917.93
  0
LWPOLYLINE
  5
8D
330
22
100
AcDbEntity
  8
LAYER_1
  6
Continuous
 62
     1
100
AcDbPolyline
 90
       11
 70
   129
 43
0.0
 10
1229.54
 20
1945.86
 10
1243.76
 20
1945.86
 10
1250.86
 20
1946.8
 10
1254.74
 20
1949.8
 10
1256.07
 20
1954.28
 10
1255.43
 20
1957.51
 10
1253.5
 20
1960.12
 10
1250.18
 20
1961.83
 10
1245.36
 20
1962.4
 10
1229.54
 20
1962.4
 10
1229.54
 20
1945.86
  0
LWPOLYLINE
  5
9A
330
22
100
AcDbEntity
  8
LAYER_1
  6
Continuous
 62
     1
100
AcDbPolyline
 90
       34
 70
   129
 43
0.0
 10
1296.11
 20
1922.39
 10
1289.55
 20
1918.3
 10
1282.78
 20
1917.11
 10
1277.5
 20
1917.84
 10
1273.6
 20
1920.02
 10
1271.2
 20
1923.34
 10
1270.4
 20
1927.48
 10
1271.61
 20
1932.34
 10
1274.78
 20
1935.87
 10
1279.2
 20
1937.88
 10
1284.65
 20
1938.8
 10
1295.6
 20
1940.91
 10
1295.64
 20
1942.52
 10
1295.2
 20
1945.71
 10
1293.9
 20
1947.8
 10
1290.97
 20
1949.36
 10
1286.91
 20
1949.88
 10
1283.14
 20
1949.5
 10
1280.51
 20
1948.37
 10
1278.72
 20
1946.26
 10
1277.46
 20
1942.99
 10
1271.46
 20
1943.81
 10
1274.15
 20
1950.04
 10
1279.57
 20
1953.69
 10
1287.79
 20
1954.97
 10
1295.33
 20
1953.87
 10
1299.59
 20
1951.13
 10
1301.5
 20
1946.95
 10
1301.81
 20
1941.29
 10
1301.81
 20
1933.1
 10
1302.2
 20
1922.27
 10
1303.75
 20
1917.93
 10
1297.34
 20
1917.93
 10
1296.11
 20
1922.39
  0
LWPOLYLINE
  5
BE
330
22
100
AcDbEntity
  8
LAYER_1
  6
Continuous
 62
     1
100
AcDbPolyline
 90
       13
 70
   129
 43
0.0
 10
1295.6
 20
1936.1
 10
1285.58
 20
1933.78
 10
1280.22
 20
1932.56
 10
1277.8
 20
1930.56
 10
1276.95
 20
1927.65
 10
1277.41
 20
1925.39
 10
1278.81
 20
1923.55
 10
1281.09
 20
1922.33
 10
1284.25
 20
1921.92
 10
1290.56
 20
1923.47
 10
1294.61
 20
1927.71
 10
1295.6
 20
1933.85
 10
1295.6
 20
1936.1
  0
LWPOLYLINE
  5
CD
330
22
100
AcDbEntity
  8
LAYER_1
  6
Continuous
 62
     1
100
AcDbPolyline
 90
       21
 70
   129
 43
0.0
 10
1334.83
 20
1917.93
 10
1334.83
 20
1922.5
 10
1330.57
 20
1918.45
 10
1324.7
 20
1917.11
 10
1320.54
 20
1917.7
 10
1316.73
 20
1919.49
 10
1313.51
 20
1922.36
 10
1311.1
 20
1926.16
 10
1309.61
 20
1930.76
 10
1309.11
 20
1936.0
 10
1310.92
 20
1945.84
 10
1313.18
 20
1949.74
 10
1316.34
 20
1952.61
 10
1320.17
 20
1954.38
 10
1324.42
 20
1954.97
 10
1330.26
 20
1953.58
 10
1334.42
 20
1949.99
 10
1334.42
 20
1967.93
 10
1340.52
 20
1967.93
 10
1340.52
 20
1917.93
 10
1334.83
 20
1917.93
  0
LWPOLYLINE
  5
E4
330
22
100
AcDbEntity
  8
LAYER_1
  6
Continuous
 62
     1
100
AcDbPolyline
 90
       17
 70
   129
 43
0.0
 10
1315.42
 20
1936.0
 10
1316.15
 20
1929.92
 10
1318.35
 20
1925.6
 10
1321.55
 20
1923.02
 10
1325.28
 20
1922.15
 10
1329.0
 20
1922.98
 10
1332.11
 20
1925.45
 10
1334.22
 20
1929.6
 10
1334.93
 20
1935.49
 10
1334.21
 20
1941.94
 10
1332.06
 20
1946.4
 10
1328.87
 20
1949.01
 10
1325.0
 20
1949.88
 10
1321.25
 20
1949.05
 10
1318.16
 20
1946.54
 10
1316.11
 20
1942.23
 10
1315.42
 20
1936.0
  0
LWPOLYLINE
  5
F7
330
22
100
AcDbEntity
  8
LAYER_1
  6
Continuous
 62
     1
100
AcDbPolyline
 90
        5
 70
   129
 43
0.0
 10
1351.91
 20
1917.93
 10
1351.91
 20
1924.92
 10
1358.9
 20
1924.92
 10
1358.9
 20
1917.93
 10
1351.91
 20
1917.93
  0
LWPOLYLINE
  5
FE
330
22
100
AcDbEntity
  8
LAYER_1
  6
Continuous
 62
     1
100
AcDbPolyline
 90
       32
 70
   129
 43
0.0
 10
1419.55
 20
1923.83
 10
1419.55
 20
1917.93
 10
1386.5
 20
1917.93
 10
1387.21
 20
1922.19
 10
1391.25
 20
1928.84
 10
1399.29
 20
1936.41
 10
1410.3
 20
1947.0
 10
1412.45
 20
1950.8
 10
1413.17
 20
1954.39
 10
1412.52
 20
1957.75
 10
1410.56
 20
1960.54
 10
1407.55
 20
1962.42
 10
1403.75
 20
1963.05
 10
1399.76
 20
1962.38
 10
1396.66
 20
1960.39
 10
1394.66
 20
1957.22
 10
1393.97
 20
1953.02
 10
1387.66
 20
1953.67
 10
1389.2
 20
1959.89
 10
1392.53
 20
1964.43
 10
1397.49
 20
1967.2
 10
1403.89
 20
1968.13
 10
1410.34
 20
1967.13
 10
1415.28
 20
1964.14
 10
1418.43
 20
1959.67
 10
1419.48
 20
1954.25
 10
1418.25
 20
1948.35
 10
1414.17
 20
1942.24
 10
1404.71
 20
1933.44
 10
1397.62
 20
1927.15
 10
1395.02
 20
1923.83
 10
1419.55
 20
1923.83
  0
LWPOLYLINE
  5
120
330
22
100
AcDbEntity
  8
LAYER_1
  6
Continuous
 62
     1
100
AcDbPolyline
 90
       21
 70
   129
 43
0.0
 10
1426.13
 20
1942.58
 10
1426.58
 20
1950.59
 10
1427.95
 20
1956.86
 10
1430.22
 20
1961.65
 10
1433.38
 20
1965.2
 10
1437.44
 20
1967.4
 10
1442.43
 20
1968.13
 10
1449.49
 20
1966.51
 10
1454.5
 20
1961.84
 10
1457.61
 20
1954.4
 10
1458.73
 20
1942.58
 10
1458.28
 20
1934.63
 10
1456.93
 20
1928.38
 10
1454.67
 20
1923.59
 10
1451.52
 20
1920.02
 10
1447.45
 20
1917.81
 10
1442.43
 20
1917.07
 10
1435.98
 20
1918.37
 10
1431.07
 20
1922.26
 10
1427.36
 20
1930.46
 10
1426.13
 20
1942.58
  0
LWPOLYLINE
  5
137
330
22
100
AcDbEntity
  8
LAYER_1
  6
Continuous
 62
     1
100
AcDbPolyline
 90
       17
 70
   129
 43
0.0
 10
1432.44
 20
1942.58
 10
1433.16
 20
1932.33
 10
1435.32
 20
1926.2
 10
1438.54
 20
1923.14
 10
1442.43
 20
1922.12
 10
1446.32
 20
1923.14
 10
1449.54
 20
1926.21
 10
1451.7
 20
1932.35
 10
1452.42
 20
1942.58
 10
1451.7
 20
1952.86
 10
1449.54
 20
1958.99
 10
1446.31
 20
1962.03
 10
1442.36
 20
1963.05
 10
1438.56
 20
1962.15
 10
1435.61
 20
1959.47
 10
1433.23
 20
1952.96
 10
1432.44
 20
1942.58
  0
LWPOLYLINE
  5
14A
330
22
100
AcDbEntity
  8
LAYER_1
  6
Continuous
 62
     1
100
AcDbPolyline
 90
       21
 70
   129
 43
0.0
 10
1464.98
 20
1942.58
 10
1465.43
 20
1950.59
 10
1466.8
 20
1956.86
 10
1469.07
 20
1961.65
 10
1472.22
 20
1965.2
 10
1476.29
 20
1967.4
 10
1481.28
 20
1968.13
 10
1488.34
 20
1966.51
 10
1493.35
 20
1961.84
 10
1496.46
 20
1954.4
 10
1497.58
 20
1942.58
 10
1497.13
 20
1934.63
 10
1495.77
 20
1928.38
 10
1493.52
 20
1923.59
 10
1490.37
 20
1920.02
 10
1486.3
 20
1917.81
 10
1481.28
 20
1917.07
 10
1474.82
 20
1918.37
 10
1469.92
 20
1922.26
 10
1466.21
 20
1930.46
 10
1464.98
 20
1942.58
  0
LWPOLYLINE
  5
161
330
22
100
AcDbEntity
  8
LAYER_1
  6
Continuous
 62
     1
100
AcDbPolyline
 90
       17
 70
   129
 43
0.0
 10
1471.29
 20
1942.58
 10
1472.01
 20
1932.33
 10
1474.17
 20
1926.2
 10
1477.39
 20
1923.14
 10
1481.28
 20
1922.12
 10
1485.17
 20
1923.14
 10
1488.39
 20
1926.21
 10
1490.55
 20
1932.35
 10
1491.27
 20
1942.58
 10
1490.55
 20
1952.86
 10
1488.39
 20
1958.99
 10
1485.15
 20
1962.03
 10
1481.21
 20
1963.05
 10
1477.41
 20
1962.15
 10
1474.46
 20
1959.47
 10
1472.08
 20
1952.96
 10
1471.29
 20
1942.58
  0
LWPOLYLINE
  5
174
330
22
100
AcDbEntity
  8
LAYER_1
  6
Continuous
 62
     1
100
AcDbPolyline
 90
       36
 70
   129
 43
0.0
 10
1505.53
 20
1917.93
 10
1505.53
 20
1954.15
 10
1511.02
 20
1954.15
 10
1511.02
 20
1949.06
 10
1515.56
 20
1953.34
 10
1522.0
 20
1954.97
 10
1528.6
 20
1953.29
 10
1530.8
 20
1951.29
 10
1532.23
 20
1948.62
 10
1537.18
 20
1953.38
 10
1543.42
 20
1954.97
 10
1548.19
 20
1954.22
 10
1551.71
 20
1951.98
 10
1553.88
 20
1948.19
 10
1554.61
 20
1942.79
 10
1554.61
 20
1917.93
 10
1548.5
 20
1917.93
 10
1548.5
 20
1940.74
 10
1547.91
 20
1946.05
 10
1545.74
 20
1948.66
 10
1542.06
 20
1949.64
 10
1538.56
 20
1949.01
 10
1535.71
 20
1947.1
 10
1533.82
 20
1943.8
 10
1533.19
 20
1938.97
 10
1533.19
 20
1917.93
 10
1527.05
 20
1917.93
 10
1527.05
 20
1941.46
 10
1525.55
 20
1947.6
 10
1523.57
 20
1949.13
 10
1520.64
 20
1949.64
 10
1515.85
 20
1948.28
 10
1512.66
 20
1944.29
 10
1511.67
 20
1936.72
 10
1511.67
 20
1917.93
 10
1505.53
 20
1917.93
  0
LWPOLYLINE
  5
19A
330
22
100
AcDbEntity
  8
LAYER_1
  6
Continuous
 62
     1
100
AcDbPolyline
 90
       36
 70
   129
 43
0.0
 10
1563.71
 20
1917.93
 10
1563.71
 20
1954.15
 10
1569.2
 20
1954.15
 10
1569.2
 20
1949.06
 10
1573.74
 20
1953.34
 10
1580.19
 20
1954.97
 10
1586.79
 20
1953.29
 10
1588.98
 20
1951.29
 10
1590.42
 20
1948.62
 10
1595.36
 20
1953.38
 10
1601.61
 20
1954.97
 10
1606.37
 20
1954.22
 10
1609.89
 20
1951.98
 10
1612.07
 20
1948.19
 10
1612.79
 20
1942.79
 10
1612.79
 20
1917.93
 10
1606.69
 20
1917.93
 10
1606.69
 20
1940.74
 10
1606.09
 20
1946.05
 10
1603.92
 20
1948.66
 10
1600.24
 20
1949.64
 10
1596.75
 20
1949.01
 10
1593.9
 20
1947.1
 10
1592.0
 20
1943.8
 10
1591.37
 20
1938.97
 10
1591.37
 20
1917.93
 10
1585.23
 20
1917.93
 10
1585.23
 20
1941.46
 10
1583.73
 20
1947.6
 10
1581.76
 20
1949.13
 10
1578.82
 20
1949.64
 10
1574.03
 20
1948.28
 10
1570.84
 20
1944.29
 10
1569.85
 20
1936.72
 10
1569.85
 20
1917.93
 10
1563.71
 20
1917.93
  0
LINE
  5
1C0
330
22
100
AcDbEntity
  8
LAYER_1
  6
Continuous
 62
     7
100
AcDbLine
 10
1700.0
 20
1300.0
 30
0.0
 11
1793.87
 21
1751.99
 31
0.0
  0
LINE
  5
1C1
330
22
100
AcDbEntity
  8
LAYER_1
  6
Continuous
 62
     7
100
AcDbLine
 10
1793.87
 20
1751.99
 30
0.0
 11
1843.87
 21
1751.99
 31
0.0
  0
LWPOLYLINE
  5
1C2
330
22
100
AcDbEntity
  8
LAYER_1
  6
Continuous
 62
     7
100
AcDbPolyline
 90
        4
 70
   129
 43
0.0
 10
1781.34
 20
1691.64
 10
1780.13
 20
1651.66
 10
1766.53
 20
1654.49
 10
1781.34
 20
1691.64
  0
LWPOLYLINE
  5
1C8
330
22
100
AcDbEntity
  8
LAYER_1
  6
Continuous
 62
     1
100
AcDbPolyline
 90
       24
 70
   129
 43
0.0
 10
1874.36
 20
1726.99
 10
1874.36
 20
1776.99
 10
1896.53
 20
1776.99
 10
1906.7
 20
1775.64
 10
1909.83
 20
1773.78
 10
1912.26
 20
1770.88
 10
1913.82
 20
1767.29
 10
1914.34
 20
1763.34
 10
1913.48
 20
1758.44
 10
1910.89
 20
1754.369999999999
 10
1906.51
 20
1751.39
 10
1900.25
 20
1749.73
 10
1904.24
 20
1747.24
 10
1909.73
 20
1740.59
 10
1918.43
 20
1726.99
 10
1910.11
 20
1726.99
 10
1903.49
 20
1737.39
 10
1898.72
 20
1744.28
 10
1895.36
 20
1747.62
 10
1892.34
 20
1748.95
 10
1888.66
 20
1749.19
 10
1880.98
 20
1749.19
 10
1880.98
 20
1726.99
 10
1874.36
 20
1726.99
  0
LWPOLYLINE
  5
1E2
330
22
100
AcDbEntity
  8
LAYER_1
  6
Continuous
 62
     1
100
AcDbPolyline
 90
       11
 70
   129
 43
0.0
 10
1880.98
 20
1754.92
 10
1895.2
 20
1754.92
 10
1902.3
 20
1755.86
 10
1906.19
 20
1758.86
 10
1907.52
 20
1763.34
 10
1906.87
 20
1766.57
 10
1904.94
 20
1769.18
 10
1901.62
 20
1770.89
 10
1896.81
 20
1771.46
 10
1880.98
 20
1771.46
 10
1880.98
 20
1754.92
  0
LWPOLYLINE
  5
1EF
330
22
100
AcDbEntity
  8
LAYER_1
  6
Continuous
 62
     1
100
AcDbPolyline
 90
       34
 70
   129
 43
0.0
 10
1947.56
 20
1731.45
 10
1940.99
 20
1727.36
 10
1934.22
 20
1726.17
 10
1928.94
 20
1726.9
 10
1925.05
 20
1729.08
 10
1922.64
 20
1732.4
 10
1921.84
 20
1736.54
 10
1923.05
 20
1741.4
 10
1926.22
 20
1744.93
 10
1930.64
 20
1746.94
 10
1936.1
 20
1747.86
 10
1947.05
 20
1749.97
 10
1947.08
 20
1751.58
 10
1946.64
 20
1754.77
 10
1945.34
 20
1756.86
 10
1942.42
 20
1758.42
 10
1938.349999999999
 20
1758.94
 10
1934.58
 20
1758.56
 10
1931.95
 20
1757.43
 10
1930.16
 20
1755.32
 10
1928.9
 20
1752.05
 10
1922.9
 20
1752.87
 10
1925.59
 20
1759.1
 10
1931.02
 20
1762.75
 10
1939.24
 20
1764.02
 10
1946.77
 20
1762.93
 10
1951.04
 20
1760.19
 10
1952.95
 20
1756.01
 10
1953.25
 20
1750.35
 10
1953.25
 20
1742.16
 10
1953.65
 20
1731.329999999999
 10
1955.2
 20
1726.99
 10
1948.78
 20
1726.99
 10
1947.56
 20
1731.45
  0
LWPOLYLINE
  5
213
330
22
100
AcDbEntity
  8
LAYER_1
  6
Continuous
 62
     1
100
AcDbPolyline
 90
       13
 70
   129
 43
0.0
 10
1947.05
 20
1745.16
 10
1937.02
 20
1742.84
 10
1931.66
 20
1741.62
 10
1929.24
 20
1739.62
 10
1928.39
 20
1736.71
 10
1928.85
 20
1734.45
 10
1930.25
 20
1732.61
 10
1932.54
 20
1731.39
 10
1935.69
 20
1730.98
 10
1942.0
 20
1732.53
 10
1946.06
 20
1736.77
 10
1947.05
 20
1742.91
 10
1947.05
 20
1745.16
  0
LWPOLYLINE
  5
222
330
22
100
AcDbEntity
  8
LAYER_1
  6
Continuous
 62
     1
100
AcDbPolyline
 90
       21
 70
   129
 43
0.0
 10
1986.27
 20
1726.99
 10
1986.27
 20
1731.56
 10
1982.01
 20
1727.51
 10
1976.14
 20
1726.17
 10
1971.98
 20
1726.76
 10
1968.17
 20
1728.55
 10
1964.95
 20
1731.41
 10
1962.55
 20
1735.22
 10
1961.05
 20
1739.82
 10
1960.55
 20
1745.06
 10
1962.36
 20
1754.9
 10
1964.62
 20
1758.8
 10
1967.78
 20
1761.67
 10
1971.61
 20
1763.44
 10
1975.87
 20
1764.02
 10
1981.7
 20
1762.64
 10
1985.86
 20
1759.05
 10
1985.86
 20
1776.99
 10
1991.96
 20
1776.99
 10
1991.96
 20
1726.99
 10
1986.27
 20
1726.99
  0
LWPOLYLINE
  5
239
330
22
100
AcDbEntity
  8
LAYER_1
  6
Continuous
 62
     1
100
AcDbPolyline
 90
       17
 70
   129
 43
0.0
 10
1966.86
 20
1745.06
 10
1967.59
 20
1738.98
 10
1969.79
 20
1734.66
 10
1972.99
 20
1732.08
 10
1976.72
 20
1731.21
 10
1980.44
 20
1732.04
 10
1983.56
 20
1734.51
 10
1985.67
 20
1738.66
 10
1986.37
 20
1744.55
 10
1985.65
 20
1751.0
 10
1983.51
 20
1755.46
 10
1980.31
 20
1758.07
 10
1976.45
 20
1758.94
 10
1972.69
 20
1758.11
 10
1969.61
 20
1755.6
 10
1967.55
 20
1751.29
 10
1966.86
 20
1745.06
  0
LWPOLYLINE
  5
24C
330
22
100
AcDbEntity
  8
LAYER_1
  6
Continuous
 62
     1
100
AcDbPolyline
 90
        5
 70
   129
 43
0.0
 10
2003.36
 20
1726.99
 10
2003.36
 20
1733.98
 10
2010.35
 20
1733.98
 10
2010.35
 20
1726.99
 10
2003.36
 20
1726.99
  0
LWPOLYLINE
  5
253
330
22
100
AcDbEntity
  8
LAYER_1
  6
Continuous
 62
     1
100
AcDbPolyline
 90
       12
 70
   129
 43
0.0
 10
2058.4
 20
1726.99
 10
2058.4
 20
1738.96
 10
2036.71
 20
1738.96
 10
2036.71
 20
1744.58
 10
2059.53
 20
1776.99
 10
2064.54
 20
1776.99
 10
2064.54
 20
1744.58
 10
2071.3
 20
1744.58
 10
2071.3
 20
1738.96
 10
2064.54
 20
1738.96
 10
2064.54
 20
1726.99
 10
2058.4
 20
1726.99
  0
LWPOLYLINE
  5
261
330
22
100
AcDbEntity
  8
LAYER_1
  6
Continuous
 62
     1
100
AcDbPolyline
 90
        4
 70
   129
 43
0.0
 10
2058.4
 20
1744.58
 10
2058.4
 20
1767.13
 10
2042.75
 20
1744.58
 10
2058.4
 20
1744.58
  0
LWPOLYLINE
  5
267
330
22
100
AcDbEntity
  8
LAYER_1
  6
Continuous
 62
     1
100
AcDbPolyline
 90
       21
 70
   129
 43
0.0
 10
2077.57
 20
1751.64
 10
2078.03
 20
1759.65
 10
2079.4
 20
1765.92
 10
2081.66
 20
1770.71
 10
2084.82
 20
1774.26
 10
2088.88
 20
1776.46
 10
2093.87
 20
1777.19
 10
2100.93
 20
1775.57
 10
2105.95
 20
1770.9
 10
2109.05
 20
1763.46
 10
2110.18
 20
1751.64
 10
2109.72
 20
1743.69
 10
2108.37
 20
1737.44
 10
2106.110000000001
 20
1732.65
 10
2102.96
 20
1729.08
 10
2098.89
 20
1726.87
 10
2093.87
 20
1726.13
 10
2087.42
 20
1727.43
 10
2082.52
 20
1731.32
 10
2078.81
 20
1739.52
 10
2077.57
 20
1751.64
  0
LWPOLYLINE
  5
27E
330
22
100
AcDbEntity
  8
LAYER_1
  6
Continuous
 62
     1
100
AcDbPolyline
 90
       17
 70
   129
 43
0.0
 10
2083.88
 20
1751.64
 10
2084.6
 20
1741.39
 10
2086.76
 20
1735.26
 10
2089.98
 20
1732.2
 10
2093.87
 20
1731.18
 10
2097.77
 20
1732.2
 10
2100.98
 20
1735.27
 10
2103.15
 20
1741.41
 10
2103.87
 20
1751.64
 10
2103.15
 20
1761.92
 10
2100.98
 20
1768.05
 10
2097.75
 20
1771.09
 10
2093.81
 20
1772.11
 10
2090.0
 20
1771.21
 10
2087.05
 20
1768.53
 10
2084.67
 20
1762.02
 10
2083.88
 20
1751.64
  0
LWPOLYLINE
  5
291
330
22
100
AcDbEntity
  8
LAYER_1
  6
Continuous
 62
     1
100
AcDbPolyline
 90
       21
 70
   129
 43
0.0
 10
2116.42
 20
1751.64
 10
2116.87
 20
1759.65
 10
2118.24
 20
1765.92
 10
2120.51
 20
1770.71
 10
2123.67
 20
1774.26
 10
2127.73
 20
1776.46
 10
2132.72
 20
1777.19
 10
2139.78
 20
1775.57
 10
2144.79
 20
1770.9
 10
2147.9
 20
1763.46
 10
2149.02
 20
1751.64
 10
2148.57
 20
1743.69
 10
2147.22
 20
1737.44
 10
2144.96
 20
1732.65
 10
2141.81
 20
1729.08
 10
2137.74
 20
1726.87
 10
2132.72
 20
1726.13
 10
2126.27
 20
1727.43
 10
2121.360000000001
 20
1731.32
 10
2117.65
 20
1739.52
 10
2116.42
 20
1751.64
  0
LWPOLYLINE
  5
2A8
330
22
100
AcDbEntity
  8
LAYER_1
  6
Continuous
 62
     1
100
AcDbPolyline
 90
       17
 70
   129
 43
0.0
 10
2122.73
 20
1751.64
 10
2123.45
 20
1741.39
 10
2125.61
 20
1735.26
 10
2128.83
 20
1732.2
 10
2132.72
 20
1731.18
 10
2136.610000000001
 20
1732.2
 10
2139.83
 20
1735.27
 10
2141.99
 20
1741.41
 10
2142.71
 20
1751.64
 10
2141.99
 20
1761.92
 10
2139.83
 20
1768.05
 10
2136.6
 20
1771.09
 10
2132.65
 20
1772.11
 10
2128.85
 20
1771.21
 10
2125.9
 20
1768.53
 10
2123.52
 20
1762.02
 10
2122.73
 20
1751.64
  0
LWPOLYLINE
  5
2BB
330
22
100
AcDbEntity
  8
LAYER_1
  6
Continuous
 62
     1
100
AcDbPolyline
 90
       36
 70
   129
 43
0.0
 10
2156.97
 20
1726.99
 10
2156.97
 20
1763.21
 10
2162.46
 20
1763.21
 10
2162.46
 20
1758.12
 10
2167.0
 20
1762.4
 10
2173.44
 20
1764.02
 10
2180.04
 20
1762.35
 10
2182.24
 20
1760.35
 10
2183.68
 20
1757.68
 10
2188.62
 20
1762.44
 10
2194.86
 20
1764.02
 10
2199.63
 20
1763.28
 10
2203.15
 20
1761.04
 10
2205.32
 20
1757.25
 10
2206.05
 20
1751.85
 10
2206.05
 20
1726.99
 10
2199.94
 20
1726.99
 10
2199.94
 20
1749.8
 10
2199.35
 20
1755.11
 10
2197.18
 20
1757.72
 10
2193.5
 20
1758.7
 10
2190.0
 20
1758.07
 10
2187.15
 20
1756.16
 10
2185.26
 20
1752.86
 10
2184.63
 20
1748.03
 10
2184.63
 20
1726.99
 10
2178.49
 20
1726.99
 10
2178.49
 20
1750.52
 10
2176.99
 20
1756.66
 10
2175.01
 20
1758.19
 10
2172.08
 20
1758.7
 10
2167.29
 20
1757.34
 10
2164.1
 20
1753.35
 10
2163.11
 20
1745.78
 10
2163.11
 20
1726.99
 10
2156.97
 20
1726.99
  0
LWPOLYLINE
  5
2E1
330
22
100
AcDbEntity
  8
LAYER_1
  6
Continuous
 62
     1
100
AcDbPolyline
 90
       36
 70
   129
 43
0.0
 10
2215.16
 20
1726.99
 10
2215.16
 20
1763.21
 10
2220.65
 20
1763.21
 10
2220.65
 20
1758.12
 10
2225.18
 20
1762.4
 10
2231.63
 20
1764.02
 10
2238.23
 20
1762.35
 10
2240.42
 20
1760.35
 10
2241.86
 20
1757.68
 10
2246.81
 20
1762.44
 10
2253.05
 20
1764.02
 10
2257.81
 20
1763.28
 10
2261.34
 20
1761.04
 10
2263.51
 20
1757.25
 10
2264.24
 20
1751.85
 10
2264.24
 20
1726.99
 10
2258.13
 20
1726.99
 10
2258.13
 20
1749.8
 10
2257.53
 20
1755.11
 10
2255.37
 20
1757.72
 10
2251.68
 20
1758.7
 10
2248.19
 20
1758.07
 10
2245.34
 20
1756.16
 10
2243.45
 20
1752.86
 10
2242.82
 20
1748.03
 10
2242.82
 20
1726.99
 10
2236.68
 20
1726.99
 10
2236.68
 20
1750.52
 10
2235.18
 20
1756.66
 10
2233.2
 20
1758.19
 10
2230.27
 20
1758.7
 10
2225.47
 20
1757.34
 10
2222.28
 20
1753.35
 10
2221.3
 20
1745.78
 10
2221.3
 20
1726.99
 10
2215.16
 20
1726.99
  0
LINE
  5
307
330
22
100
AcDbEntity
  8
LAYER_1
  6
Continuous
 62
     7
100
AcDbLine
 10
1100.0
 20
1100.0
 30
0.0
 11
1393.27
 21
1853.07
 31
0.0
  0
LINE
  5
308
330
22
100
AcDbEntity
  8
LAYER_1
  6
Continuous
 62
     7
100
AcDbLine
 10
1393.27
 20
1853.07
 30
0.0
 11
1443.27
 21
1853.07
 31
0.0
  0
LWPOLYLINE
  5
309
330
22
100
AcDbEntity
  8
LAYER_1
  6
Continuous
 62
     7
100
AcDbPolyline
 90
        4
 70
   129
 43
0.0
 10
1317.73
 20
1659.1
 10
1309.91
 20
1619.87
 10
1296.97
 20
1624.91
 10
1317.73
 20
1659.1
  0
LWPOLYLINE
  5
30F
330
22
100
AcDbEntity
  8
LAYER_1
  6
Continuous
 62
     1
100
AcDbPolyline
 90
       24
 70
   129
 43
0.0
 10
1473.77
 20
1828.07
 10
1473.77
 20
1878.07
 10
1495.93
 20
1878.07
 10
1506.1
 20
1876.72
 10
1509.23
 20
1874.86
 10
1511.66
 20
1871.97
 10
1513.22
 20
1868.38
 10
1513.74
 20
1864.43
 10
1512.88
 20
1859.53
 10
1510.29
 20
1855.46
 10
1505.91
 20
1852.47
 10
1499.65
 20
1850.82
 10
1503.64
 20
1848.33
 10
1509.13
 20
1841.68
 10
1517.83
 20
1828.07
 10
1509.51
 20
1828.07
 10
1502.89
 20
1838.47
 10
1498.12
 20
1845.36
 10
1494.76
 20
1848.71
 10
1491.74
 20
1850.04
 10
1488.06
 20
1850.27
 10
1480.38
 20
1850.27
 10
1480.38
 20
1828.07
 10
1473.77
 20
1828.07
  0
LWPOLYLINE
  5
329
330
22
100
AcDbEntity
  8
LAYER_1
  6
Continuous
 62
     1
100
AcDbPolyline
 90
       11
 70
   129
 43
0.0
 10
1480.38
 20
1856.0
 10
1494.6
 20
1856.0
 10
1501.7
 20
1856.94
 10
1505.59
 20
1859.94
 10
1506.92
 20
1864.43
 10
1506.27
 20
1867.66
 10
1504.34
 20
1870.26
 10
1501.02
 20
1871.97
 10
1496.21
 20
1872.55
 10
1480.38
 20
1872.55
 10
1480.38
 20
1856.0
  0
LWPOLYLINE
  5
336
330
22
100
AcDbEntity
  8
LAYER_1
  6
Continuous
 62
     1
100
AcDbPolyline
 90
       34
 70
   129
 43
0.0
 10
1546.96
 20
1832.54
 10
1540.39
 20
1828.45
 10
1533.62
 20
1827.25
 10
1528.34
 20
1827.98
 10
1524.45
 20
1830.17
 10
1522.04
 20
1833.49
 10
1521.24
 20
1837.62
 10
1522.45
 20
1842.48
 10
1525.62
 20
1846.01
 10
1530.04
 20
1848.02
 10
1535.5
 20
1848.94
 10
1546.45
 20
1851.06
 10
1546.48
 20
1852.66
 10
1546.05
 20
1855.86
 10
1544.74
 20
1857.95
 10
1541.82
 20
1859.51
 10
1537.75
 20
1860.03
 10
1533.98
 20
1859.65
 10
1531.35
 20
1858.51
 10
1529.56
 20
1856.41
 10
1528.3
 20
1853.14
 10
1522.3
 20
1853.96
 10
1524.99
 20
1860.18
 10
1530.42
 20
1863.83
 10
1538.64
 20
1865.11
 10
1546.17
 20
1864.02
 10
1550.44
 20
1861.27
 10
1552.35
 20
1857.1
 10
1552.65
 20
1851.43
 10
1552.65
 20
1843.25
 10
1553.05
 20
1832.42
 10
1554.6
 20
1828.07
 10
1548.19
 20
1828.07
 10
1546.96
 20
1832.54
  0
LWPOLYLINE
  5
35A
330
22
100
AcDbEntity
  8
LAYER_1
  6
Continuous
 62
     1
100
AcDbPolyline
 90
       13
 70
   129
 43
0.0
 10
1546.45
 20
1846.25
 10
1536.42
 20
1843.93
 10
1531.06
 20
1842.7
 10
1528.64
 20
1840.71
 10
1527.79
 20
1837.79
 10
1528.25
 20
1835.54
 10
1529.65
 20
1833.7
 10
1531.94
 20
1832.47
 10
1535.09
 20
1832.06
 10
1541.4
 20
1833.61
 10
1545.46
 20
1837.86
 10
1546.45
 20
1844.0
 10
1546.45
 20
1846.25
  0
LWPOLYLINE
  5
369
330
22
100
AcDbEntity
  8
LAYER_1
  6
Continuous
 62
     1
100
AcDbPolyline
 90
       21
 70
   129
 43
0.0
 10
1585.67
 20
1828.07
 10
1585.67
 20
1832.64
 10
1581.41
 20
1828.599999999999
 10
1575.54
 20
1827.25
 10
1571.38
 20
1827.85
 10
1567.57
 20
1829.64
 10
1564.35
 20
1832.5
 10
1561.95
 20
1836.31
 10
1560.45
 20
1840.91
 10
1559.95
 20
1846.15
 10
1561.76
 20
1855.99
 10
1564.02
 20
1859.89
 10
1567.18
 20
1862.76
 10
1571.01
 20
1864.52
 10
1575.27
 20
1865.11
 10
1581.1
 20
1863.73
 10
1585.26
 20
1860.13
 10
1585.26
 20
1878.07
 10
1591.36
 20
1878.07
 10
1591.36
 20
1828.07
 10
1585.67
 20
1828.07
  0
LWPOLYLINE
  5
380
330
22
100
AcDbEntity
  8
LAYER_1
  6
Continuous
 62
     1
100
AcDbPolyline
 90
       17
 70
   129
 43
0.0
 10
1566.26
 20
1846.15
 10
1566.99
 20
1840.07
 10
1569.19
 20
1835.75
 10
1572.39
 20
1833.16
 10
1576.12
 20
1832.3
 10
1579.84
 20
1833.12
 10
1582.96
 20
1835.59
 10
1585.07
 20
1839.75
 10
1585.77
 20
1845.64
 10
1585.05
 20
1852.08
 10
1582.91
 20
1856.55
 10
1579.71
 20
1859.16
 10
1575.85
 20
1860.03
 10
1572.09
 20
1859.19
 10
1569.01
 20
1856.69
 10
1566.95
 20
1852.38
 10
1566.26
 20
1846.15
  0
LWPOLYLINE
  5
393
330
22
100
AcDbEntity
  8
LAYER_1
  6
Continuous
 62
     1
100
AcDbPolyline
 90
        5
 70
   129
 43
0.0
 10
1602.76
 20
1828.07
 10
1602.76
 20
1835.06
 10
1609.75
 20
1835.06
 10
1609.75
 20
1828.07
 10
1602.76
 20
1828.07
  0
LWPOLYLINE
  5
39A
330
22
100
AcDbEntity
  8
LAYER_1
  6
Continuous
 62
     1
100
AcDbPolyline
 90
       35
 70
   129
 43
0.0
 10
1669.98
 20
1865.83
 10
1663.87
 20
1865.35
 10
1661.55
 20
1870.6
 10
1658.78
 20
1872.57
 10
1655.42
 20
1873.23
 10
1650.27
 20
1871.59
 10
1647.67
 20
1868.99
 10
1645.7
 20
1865.42
 10
1644.42
 20
1860.5
 10
1643.96
 20
1853.86
 10
1649.38
 20
1858.87
 10
1656.1
 20
1860.51
 10
1661.78
 20
1859.38
 10
1666.55
 20
1855.99
 10
1669.79
 20
1850.81
 10
1670.87
 20
1844.31
 10
1670.36
 20
1839.77
 10
1668.84
 20
1835.56
 10
1666.43
 20
1831.99
 10
1663.26
 20
1829.37
 10
1659.47
 20
1827.76
 10
1655.21
 20
1827.22
 10
1648.24
 20
1828.63
 10
1642.69
 20
1832.86
 10
1639.06
 20
1840.34
 10
1637.85
 20
1851.47
 10
1639.19
 20
1863.99
 10
1640.86
 20
1868.76
 10
1643.21
 20
1872.55
 10
1648.69
 20
1876.84
 10
1655.79
 20
1878.28
 10
1661.16
 20
1877.45
 10
1665.46
 20
1874.97
 10
1668.47
 20
1871.03
 10
1669.98
 20
1865.83
  0
LWPOLYLINE
  5
3BF
330
22
100
AcDbEntity
  8
LAYER_1
  6
Continuous
 62
     1
100
AcDbPolyline
 90
       16
 70
   129
 43
0.0
 10
1644.91
 20
1844.27
 10
1646.26
 20
1838.2
 10
1650.03
 20
1833.78
 10
1655.11
 20
1832.27
 10
1658.72
 20
1833.05
 10
1661.79
 20
1835.4
 10
1663.89
 20
1839.1
 10
1664.59
 20
1843.93
 10
1663.9
 20
1848.57
 10
1661.83
 20
1852.1
 10
1658.71
 20
1854.34
 10
1654.87
 20
1855.08
 10
1651.02
 20
1854.34
 10
1647.81
 20
1852.1
 10
1645.64
 20
1848.65
 10
1644.91
 20
1844.27
  0
LWPOLYLINE
  5
3D1
330
22
100
AcDbEntity
  8
LAYER_1
  6
Continuous
 62
     1
100
AcDbPolyline
 90
       21
 70
   129
 43
0.0
 10
1676.97
 20
1852.73
 10
1677.43
 20
1860.73
 10
1678.8
 20
1867.0
 10
1681.06
 20
1871.79
 10
1684.22
 20
1875.34
 10
1688.28
 20
1877.54
 10
1693.27
 20
1878.28
 10
1700.33
 20
1876.66
 10
1705.35
 20
1871.98
 10
1708.45
 20
1864.55
 10
1709.58
 20
1852.73
 10
1709.12
 20
1844.78
 10
1707.77
 20
1838.52
 10
1705.51
 20
1833.73
 10
1702.36
 20
1830.17
 10
1698.29
 20
1827.96
 10
1693.27
 20
1827.22
 10
1686.82
 20
1828.51
 10
1681.92
 20
1832.4
 10
1678.21
 20
1840.61
 10
1676.97
 20
1852.73
  0
LWPOLYLINE
  5
3E8
330
22
100
AcDbEntity
  8
LAYER_1
  6
Continuous
 62
     1
100
AcDbPolyline
 90
       17
 70
   129
 43
0.0
 10
1683.28
 20
1852.73
 10
1684.0
 20
1842.48
 10
1686.16
 20
1836.34
 10
1689.38
 20
1833.29
 10
1693.27
 20
1832.27
 10
1697.17
 20
1833.29
 10
1700.39
 20
1836.36
 10
1702.55
 20
1842.5
 10
1703.27
 20
1852.73
 10
1702.55
 20
1863.0
 10
1700.39
 20
1869.14
 10
1697.15
 20
1872.18
 10
1693.21
 20
1873.19
 10
1689.4
 20
1872.3
 10
1686.45
 20
1869.609999999999
 10
1684.07
 20
1863.11
 10
1683.28
 20
1852.73
  0
LWPOLYLINE
  5
3FB
330
22
100
AcDbEntity
  8
LAYER_1
  6
Continuous
 62
     1
100
AcDbPolyline
 90
       21
 70
   129
 43
0.0
 10
1715.82
 20
1852.73
 10
1716.27
 20
1860.73
 10
1717.64
 20
1867.0
 10
1719.91
 20
1871.79
 10
1723.07
 20
1875.34
 10
1727.13
 20
1877.54
 10
1732.12
 20
1878.28
 10
1739.18
 20
1876.66
 10
1744.19
 20
1871.98
 10
1747.3
 20
1864.55
 10
1748.42
 20
1852.73
 10
1747.97
 20
1844.78
 10
1746.62
 20
1838.52
 10
1744.36
 20
1833.73
 10
1741.21
 20
1830.17
 10
1737.14
 20
1827.96
 10
1732.12
 20
1827.22
 10
1725.67
 20
1828.51
 10
1720.76
 20
1832.4
 10
1717.05
 20
1840.61
 10
1715.82
 20
1852.73
  0
LWPOLYLINE
  5
412
330
22
100
AcDbEntity
  8
LAYER_1
  6
Continuous
 62
     1
100
AcDbPolyline
 90
       17
 70
   129
 43
0.0
 10
1722.13
 20
1852.73
 10
1722.85
 20
1842.48
 10
1725.01
 20
1836.34
 10
1728.23
 20
1833.29
 10
1732.12
 20
1832.27
 10
1736.01
 20
1833.29
 10
1739.23
 20
1836.36
 10
1741.39
 20
1842.5
 10
1742.11
 20
1852.73
 10
1741.39
 20
1863.0
 10
1739.23
 20
1869.14
 10
1736.0
 20
1872.18
 10
1732.05
 20
1873.19
 10
1728.25
 20
1872.3
 10
1725.3
 20
1869.609999999999
 10
1722.92
 20
1863.11
 10
1722.13
 20
1852.73
  0
LWPOLYLINE
  5
425
330
22
100
AcDbEntity
  8
LAYER_1
  6
Continuous
 62
     1
100
AcDbPolyline
 90
       36
 70
   129
 43
0.0
 10
1756.37
 20
1828.07
 10
1756.37
 20
1864.29
 10
1761.86
 20
1864.29
 10
1761.86
 20
1859.21
 10
1766.4
 20
1863.49
 10
1772.84
 20
1865.11
 10
1779.44
 20
1863.44
 10
1781.64
 20
1861.44
 10
1783.08
 20
1858.77
 10
1788.02
 20
1863.52
 10
1794.26
 20
1865.11
 10
1799.03
 20
1864.36
 10
1802.55
 20
1862.13
 10
1804.73
 20
1858.34
 10
1805.45
 20
1852.93
 10
1805.45
 20
1828.07
 10
1799.34
 20
1828.07
 10
1799.34
 20
1850.89
 10
1798.75
 20
1856.19
 10
1796.58
 20
1858.8
 10
1792.9
 20
1859.79
 10
1789.4
 20
1859.16
 10
1786.55
 20
1857.25
 10
1784.66
 20
1853.95
 10
1784.03
 20
1849.11
 10
1784.03
 20
1828.07
 10
1777.89
 20
1828.07
 10
1777.89
 20
1851.6
 10
1776.39
 20
1857.74
 10
1774.41
 20
1859.28
 10
1771.48
 20
1859.79
 10
1766.69
 20
1858.43
 10
1763.5
 20
1854.44
 10
1762.51
 20
1846.86
 10
1762.51
 20
1828.07
 10
1756.37
 20
1828.07
  0
LWPOLYLINE
  5
44B
330
22
100
AcDbEntity
  8
LAYER_1
  6
Continuous
 62
     1
100
AcDbPolyline
 90
       36
 70
   129
 43
0.0
 10
1814.56
 20
1828.07
 10
1814.56
 20
1864.29
 10
1820.05
 20
1864.29
 10
1820.05
 20
1859.21
 10
1824.58
 20
1863.49
 10
1831.03
 20
1865.11
 10
1837.63
 20
1863.44
 10
1839.82
 20
1861.44
 10
1841.26
 20
1858.77
 10
1846.21
 20
1863.52
 10
1852.45
 20
1865.11
 10
1857.21
 20
1864.36
 10
1860.74
 20
1862.13
 10
1862.91
 20
1858.34
 10
1863.64
 20
1852.93
 10
1863.64
 20
1828.07
 10
1857.53
 20
1828.07
 10
1857.53
 20
1850.89
 10
1856.93
 20
1856.19
 10
1854.77
 20
1858.8
 10
1851.08
 20
1859.79
 10
1847.59
 20
1859.16
 10
1844.74
 20
1857.25
 10
1842.85
 20
1853.95
 10
1842.22
 20
1849.11
 10
1842.22
 20
1828.07
 10
1836.08
 20
1828.07
 10
1836.08
 20
1851.6
 10
1834.58
 20
1857.74
 10
1832.6
 20
1859.28
 10
1829.67
 20
1859.79
 10
1824.87
 20
1858.43
 10
1821.68
 20
1854.44
 10
1820.7
 20
1846.86
 10
1820.7
 20
1828.07
 10
1814.56
 20
1828.07
  0
LINE
  5
471
330
22
100
AcDbEntity
  8
LAYER_1
  6
Continuous
 62
     7
100
AcDbLine
 10
500.0
 20
1500.0
 30
0.0
 11
558.379
 21
1879.28
 31
0.0
  0
LINE
  5
472
330
22
100
AcDbEntity
  8
LAYER_1
  6
Continuous
 62
     7
100
AcDbLine
 10
558.379
 20
1879.28
 30
0.0
 11
608.379
 21
1879.28
 31
0.0
  0
LWPOLYLINE
  5
473
330
22
100
AcDbEntity
  8
LAYER_1
  6
Continuous
 62
     7
100
AcDbPolyline
 90
        4
 70
   129
 43
0.0
 10
515.213
 20
1598.84
 10
516.085
 20
1558.85
 10
502.355
 20
1560.96
 10
515.213
 20
1598.84
  0
LWPOLYLINE
  5
479
330
22
100
AcDbEntity
  8
LAYER_1
  6
Continuous
 62
     1
100
AcDbPolyline
 90
       24
 70
   129
 43
0.0
 10
638.87
 20
1854.28
 10
638.87
 20
1904.28
 10
661.0399999999999
 20
1904.28
 10
671.2029999999999
 20
1902.93
 10
674.3330000000001
 20
1901.07
 10
676.763
 20
1898.17
 10
678.3229999999999
 20
1894.58
 10
678.843
 20
1890.64
 10
677.9819999999999
 20
1885.73
 10
675.398
 20
1881.67
 10
671.0160000000001
 20
1878.68
 10
664.7569999999999
 20
1877.03
 10
668.748
 20
1874.54
 10
674.2389999999999
 20
1867.89
 10
682.936
 20
1854.28
 10
674.6139999999999
 20
1854.28
 10
667.9969999999999
 20
1864.68
 10
663.222
 20
1871.57
 10
659.863
 20
1874.91
 10
656.8439999999999
 20
1876.24
 10
653.1609999999999
 20
1876.48
 10
645.4869999999999
 20
1876.48
 10
645.4869999999999
 20
1854.28
 10
638.87
 20
1854.28
  0
LWPOLYLINE
  5
493
330
22
100
AcDbEntity
  8
LAYER_1
  6
Continuous
 62
     1
100
AcDbPolyline
 90
       11
 70
   129
 43
0.0
 10
645.4869999999999
 20
1882.21
 10
659.7089999999999
 20
1882.21
 10
666.8039999999999
 20
1883.15
 10
670.692
 20
1886.15
 10
672.0219999999999
 20
1890.64
 10
671.378
 20
1893.87
 10
669.4469999999999
 20
1896.47
 10
666.1260000000001
 20
1898.18
 10
661.312
 20
1898.75
 10
645.4869999999999
 20
1898.75
 10
645.4869999999999
 20
1882.21
  0
LWPOLYLINE
  5
4A0
330
22
100
AcDbEntity
  8
LAYER_1
  6
Continuous
 62
     1
100
AcDbPolyline
 90
       34
 70
   129
 43
0.0
 10
712.063
 20
1858.75
 10
705.4969999999999
 20
1854.65
 10
698.7269999999999
 20
1853.46
 10
693.4489999999999
 20
1854.19
 10
689.5529999999999
 20
1856.38
 10
687.148
 20
1859.7
 10
686.3469999999999
 20
1863.83
 10
687.557
 20
1868.69
 10
690.7289999999999
 20
1872.22
 10
695.146
 20
1874.23
 10
700.603
 20
1875.15
 10
711.551
 20
1877.27
 10
711.585
 20
1878.87
 10
711.1499999999999
 20
1882.07
 10
709.846
 20
1884.16
 10
706.921
 20
1885.72
 10
702.8539999999999
 20
1886.24
 10
699.09
 20
1885.86
 10
696.4589999999999
 20
1884.72
 10
694.664
 20
1882.62
 10
693.4069999999999
 20
1879.35
 10
687.4039999999999
 20
1880.17
 10
690.098
 20
1886.39
 10
695.5210000000001
 20
1890.04
 10
703.7410000000001
 20
1891.32
 10
711.278
 20
1890.23
 10
715.5419999999999
 20
1887.48
 10
717.452
 20
1883.3
 10
717.7589999999999
 20
1877.64
 10
717.7589999999999
 20
1869.46
 10
718.1510000000001
 20
1858.63
 10
719.7029999999999
 20
1854.28
 10
713.291
 20
1854.28
 10
712.063
 20
1858.75
  0
LWPOLYLINE
  5
4C4
330
22
100
AcDbEntity
  8
LAYER_1
  6
Continuous
 62
     1
100
AcDbPolyline
 90
       13
 70
   129
 43
0.0
 10
711.551
 20
1872.46
 10
701.5239999999998
 20
1870.14
 10
696.1689999999999
 20
1868.91
 10
693.748
 20
1866.92
 10
692.895
 20
1864.0
 10
693.36
 20
1861.75
 10
694.7539999999999
 20
1859.91
 10
697.043
 20
1858.68
 10
700.1939999999999
 20
1858.27
 10
706.503
 20
1859.82
 10
710.562
 20
1864.07
 10
711.551
 20
1870.21
 10
711.551
 20
1872.46
  0
LWPOLYLINE
  5
4D3
330
22
100
AcDbEntity
  8
LAYER_1
  6
Continuous
 62
     1
100
AcDbPolyline
 90
       21
 70
   129
 43
0.0
 10
750.7739999999999
 20
1854.28
 10
750.7739999999999
 20
1858.85
 10
746.5189999999998
 20
1854.81
 10
740.6439999999999
 20
1853.46
 10
736.4869999999999
 20
1854.06
 10
732.6799999999999
 20
1855.85
 10
729.457
 20
1858.71
 10
727.0529999999999
 20
1862.52
 10
725.556
 20
1867.12
 10
725.057
 20
1872.36
 10
726.865
 20
1882.19
 10
729.1239999999999
 20
1886.1
 10
732.288
 20
1888.96
 10
736.116
 20
1890.73
 10
740.3710000000001
 20
1891.32
 10
746.2029999999999
 20
1889.94
 10
750.3639999999998
 20
1886.34
 10
750.3639999999998
 20
1904.28
 10
756.4689999999999
 20
1904.28
 10
756.4689999999999
 20
1854.28
 10
750.7739999999999
 20
1854.28
  0
LWPOLYLINE
  5
4EA
330
22
100
AcDbEntity
  8
LAYER_1
  6
Continuous
 62
     1
100
AcDbPolyline
 90
       17
 70
   129
 43
0.0
 10
731.367
 20
1872.36
 10
732.1
 20
1866.28
 10
734.2999999999999
 20
1861.95
 10
737.498
 20
1859.37
 10
741.2239999999999
 20
1858.51
 10
744.946
 20
1859.33
 10
748.062
 20
1861.8
 10
750.172
 20
1865.96
 10
750.8760000000001
 20
1871.84
 10
750.1599999999999
 20
1878.29
 10
748.011
 20
1882.76
 10
744.8129999999999
 20
1885.37
 10
740.951
 20
1886.24
 10
737.195
 20
1885.4
 10
734.113
 20
1882.89
 10
732.0529999999999
 20
1878.59
 10
731.367
 20
1872.36
  0
LWPOLYLINE
  5
4FD
330
22
100
AcDbEntity
  8
LAYER_1
  6
Continuous
 62
     1
100
AcDbPolyline
 90
        5
 70
   129
 43
0.0
 10
767.861
 20
1854.28
 10
767.861
 20
1861.27
 10
774.853
 20
1861.27
 10
774.853
 20
1854.28
 10
767.861
 20
1854.28
  0
LWPOLYLINE
  5
504
330
22
100
AcDbEntity
  8
LAYER_1
  6
Continuous
 62
     1
100
AcDbPolyline
 90
       10
 70
   129
 43
0.0
 10
826.3530000000001
 20
1854.28
 10
820.2139999999999
 20
1854.28
 10
820.2139999999999
 20
1893.4
 10
814.3989999999998
 20
1889.17
 10
807.9360000000001
 20
1886.0
 10
807.9360000000001
 20
1891.93
 10
816.9400000000001
 20
1897.8
 10
822.3969999999999
 20
1904.48
 10
826.3530000000001
 20
1904.48
 10
826.3530000000001
 20
1854.28
  0
LWPOLYLINE
  5
510
330
22
100
AcDbEntity
  8
LAYER_1
  6
Continuous
 62
     1
100
AcDbPolyline
 90
       21
 70
   129
 43
0.0
 10
842.0759999999999
 20
1878.94
 10
842.533
 20
1886.94
 10
843.9010000000001
 20
1893.21
 10
846.169
 20
1898.0
 10
849.324
 20
1901.55
 10
853.387
 20
1903.75
 10
858.3789999999998
 20
1904.48
 10
865.4389999999999
 20
1902.86
 10
870.453
 20
1898.19
 10
873.557
 20
1890.76
 10
874.6819999999999
 20
1878.94
 10
874.23
 20
1870.99
 10
872.874
 20
1864.73
 10
870.6189999999999
 20
1859.94
 10
867.469
 20
1856.38
 10
863.3969999999999
 20
1854.16
 10
858.3789999999998
 20
1853.43
 10
851.9249999999999
 20
1854.72
 10
847.0219999999999
 20
1858.61
 10
843.313
 20
1866.81
 10
842.0759999999999
 20
1878.94
  0
LWPOLYLINE
  5
527
330
22
100
AcDbEntity
  8
LAYER_1
  6
Continuous
 62
     1
100
AcDbPolyline
 90
       17
 70
   129
 43
0.0
 10
848.3860000000001
 20
1878.94
 10
849.107
 20
1868.68
 10
851.2679999999999
 20
1862.55
 10
854.4869999999999
 20
1859.49
 10
858.3789999999998
 20
1858.47
 10
862.2719999999999
 20
1859.5
 10
865.4899999999999
 20
1862.57
 10
867.652
 20
1868.71
 10
868.3719999999999
 20
1878.94
 10
867.652
 20
1889.21
 10
865.4899999999999
 20
1895.34
 10
862.255
 20
1898.39
 10
858.3110000000001
 20
1899.4
 10
854.508
 20
1898.51
 10
851.5579999999999
 20
1895.82
 10
849.1789999999999
 20
1889.31
 10
848.3860000000001
 20
1878.94
  0
LWPOLYLINE
  5
53A
330
22
100
AcDbEntity
  8
LAYER_1
  6
Continuous
 62
     1
100
AcDbPolyline
 90
       21
 70
   129
 43
0.0
 10
880.924
 20
1878.94
 10
881.38
 20
1886.94
 10
882.7480000000001
 20
1893.21
 10
885.016
 20
1898.0
 10
888.1709999999999
 20
1901.55
 10
892.234
 20
1903.75
 10
897.2260000000002
 20
1904.48
 10
904.2860000000001
 20
1902.86
 10
909.2999999999999
 20
1898.19
 10
912.404
 20
1890.76
 10
913.5289999999999
 20
1878.94
 10
913.077
 20
1870.99
 10
911.7219999999999
 20
1864.73
 10
909.4660000000001
 20
1859.94
 10
906.3159999999999
 20
1856.38
 10
902.2439999999999
 20
1854.16
 10
897.2260000000002
 20
1853.43
 10
890.7719999999999
 20
1854.72
 10
885.8689999999999
 20
1858.61
 10
882.16
 20
1866.81
 10
880.924
 20
1878.94
  0
LWPOLYLINE
  5
551
330
22
100
AcDbEntity
  8
LAYER_1
  6
Continuous
 62
     1
100
AcDbPolyline
 90
       17
 70
   129
 43
0.0
 10
887.2330000000001
 20
1878.94
 10
887.954
 20
1868.68
 10
890.1149999999999
 20
1862.55
 10
893.3339999999999
 20
1859.49
 10
897.2260000000002
 20
1858.47
 10
901.1189999999999
 20
1859.5
 10
904.338
 20
1862.57
 10
906.4989999999999
 20
1868.71
 10
907.22
 20
1878.94
 10
906.4989999999999
 20
1889.21
 10
904.338
 20
1895.34
 10
901.102
 20
1898.39
 10
897.1580000000001
 20
1899.4
 10
893.355
 20
1898.51
 10
890.4049999999999
 20
1895.82
 10
888.0260000000001
 20
1889.31
 10
887.2330000000001
 20
1878.94
  0
LWPOLYLINE
  5
564
330
22
100
AcDbEntity
  8
LAYER_1
  6
Continuous
 62
     1
100
AcDbPolyline
 90
       36
 70
   129
 43
0.0
 10
921.4760000000001
 20
1854.28
 10
921.4760000000001
 20
1890.5
 10
926.9669999999999
 20
1890.5
 10
926.9669999999999
 20
1885.42
 10
931.503
 20
1889.7
 10
937.95
 20
1891.32
 10
944.5489999999999
 20
1889.65
 10
946.7449999999999
 20
1887.64
 10
948.1810000000001
 20
1884.97
 10
953.1269999999999
 20
1889.73
 10
959.368
 20
1891.32
 10
964.135
 20
1890.57
 10
967.656
 20
1888.33
 10
969.8300000000001
 20
1884.54
 10
970.555
 20
1879.14
 10
970.555
 20
1854.28
 10
964.45
 20
1854.28
 10
964.45
 20
1877.1
 10
963.8530000000001
 20
1882.4
 10
961.688
 20
1885.01
 10
958.0039999999998
 20
1886.0
 10
954.508
 20
1885.36
 10
951.66
 20
1883.46
 10
949.7669999999999
 20
1880.15
 10
949.136
 20
1875.32
 10
949.136
 20
1854.28
 10
942.9969999999999
 20
1854.28
 10
942.9969999999999
 20
1877.81
 10
941.497
 20
1883.95
 10
939.5179999999999
 20
1885.49
 10
936.585
 20
1886.0
 10
931.793
 20
1884.63
 10
928.6039999999999
 20
1880.64
 10
927.6149999999999
 20
1873.07
 10
927.6149999999999
 20
1854.28
 10
921.4760000000001
 20
1854.28
  0
LWPOLYLINE
  5
58A
330
22
100
AcDbEntity
  8
LAYER_1
  6
Continuous
 62
     1
100
AcDbPolyline
 90
       36
 70
   129
 43
0.0
 10
979.6619999999998
 20
1854.28
 10
979.6619999999998
 20
1890.5
 10
985.153
 20
1890.5
 10
985.153
 20
1885.42
 10
989.6889999999999
 20
1889.7
 10
996.1349999999999
 20
1891.32
 10
1002.73
 20
1889.65
 10
1004.93
 20
1887.64
 10
1006.37
 20
1884.97
 10
1011.31
 20
1889.73
 10
1017.55
 20
1891.32
 10
1022.32
 20
1890.57
 10
1025.84
 20
1888.33
 10
1028.02
 20
1884.54
 10
1028.74
 20
1879.14
 10
1028.74
 20
1854.28
 10
1022.64
 20
1854.28
 10
1022.64
 20
1877.1
 10
1022.04
 20
1882.4
 10
1019.87
 20
1885.01
 10
1016.19
 20
1886.0
 10
1012.69
 20
1885.36
 10
1009.85
 20
1883.46
 10
1007.95
 20
1880.15
 10
1007.32
 20
1875.32
 10
1007.32
 20
1854.28
 10
1001.18
 20
1854.28
 10
1001.18
 20
1877.81
 10
999.6819999999999
 20
1883.95
 10
997.704
 20
1885.49
 10
994.771
 20
1886.0
 10
989.9789999999999
 20
1884.63
 10
986.79
 20
1880.64
 10
985.801
 20
1873.07
 10
985.801
 20
1854.28
 10
979.6619999999998
 20
1854.28
  0
LINE
  5
5B0
330
22
100
AcDbEntity
  8
LAYER_1
  6
Continuous
 62
     7
100
AcDbLine
 10
2550.0
 20
1300.0
 30
0.0
 11
2426.6
 21
1920.46
 31
0.0
  0
LINE
  5
5B1
330
22
100
AcDbEntity
  8
LAYER_1
  6
Continuous
 62
     7
100
AcDbLine
 10
2426.6
 20
1920.46
 30
0.0
 11
2376.6
 21
1920.46
 31
0.0
  0
LWPOLYLINE
  5
5B2
330
22
100
AcDbEntity
  8
LAYER_1
  6
Continuous
 62
     7
100
AcDbPolyline
 90
        4
 70
   129
 43
0.0
 10
2520.74
 20
1447.12
 10
2535.24
 20
1409.84
 10
2521.61
 20
1407.13
 10
2520.74
 20
1447.12
  0
LWPOLYLINE
  5
5B8
330
22
100
AcDbEntity
  8
LAYER_1
  6
Continuous
 62
     1
100
AcDbPolyline
 90
       24
 70
   129
 43
0.0
 10
1957.22
 20
1895.46
 10
1957.22
 20
1945.46
 10
1979.39
 20
1945.46
 10
1989.56
 20
1944.11
 10
1992.69
 20
1942.25
 10
1995.12
 20
1939.36
 10
1996.68
 20
1935.77
 10
1997.2
 20
1931.82
 10
1996.34
 20
1926.92
 10
1993.75
 20
1922.85
 10
1989.37
 20
1919.87
 10
1983.11
 20
1918.21
 10
1987.1
 20
1915.72
 10
1992.59
 20
1909.07
 10
2001.29
 20
1895.46
 10
1992.97
 20
1895.46
 10
1986.35
 20
1905.86
 10
1981.58
 20
1912.75
 10
1978.22
 20
1916.1
 10
1975.2
 20
1917.43
 10
1971.51
 20
1917.67
 10
1963.84
 20
1917.67
 10
1963.84
 20
1895.46
 10
1957.22
 20
1895.46
  0
LWPOLYLINE
  5
5D2
330
22
100
AcDbEntity
  8
LAYER_1
  6
Continuous
 62
     1
100
AcDbPolyline
 90
       11
 70
   129
 43
0.0
 10
1963.84
 20
1923.4
 10
1978.06
 20
1923.4
 10
1985.16
 20
1924.33
 10
1989.05
 20
1927.33
 10
1990.38
 20
1931.82
 10
1989.73
 20
1935.05
 10
1987.8
 20
1937.65
 10
1984.48
 20
1939.37
 10
1979.67
 20
1939.94
 10
1963.84
 20
1939.94
 10
1963.84
 20
1923.4
  0
LWPOLYLINE
  5
5DF
330
22
100
AcDbEntity
  8
LAYER_1
  6
Continuous
 62
     1
100
AcDbPolyline
 90
       34
 70
   129
 43
0.0
 10
2030.42
 20
1899.93
 10
2023.85
 20
1895.84
 10
2017.08
 20
1894.64
 10
2011.8
 20
1895.369999999999
 10
2007.91
 20
1897.56
 10
2005.5
 20
1900.88
 10
2004.7
 20
1905.01
 10
2005.91
 20
1909.87
 10
2009.08
 20
1913.4
 10
2013.5
 20
1915.41
 10
2018.96
 20
1916.34
 10
2029.9
 20
1918.45
 10
2029.94
 20
1920.05
 10
2029.5
 20
1923.25
 10
2028.2
 20
1925.34
 10
2025.27
 20
1926.9
 10
2021.21
 20
1927.42
 10
2017.44
 20
1927.04
 10
2014.81
 20
1925.9
 10
2013.02
 20
1923.8
 10
2011.76
 20
1920.53
 10
2005.76
 20
1921.35
 10
2008.45
 20
1927.57
 10
2013.87
 20
1931.22
 10
2022.09
 20
1932.5
 10
2029.63
 20
1931.41
 10
2033.9
 20
1928.66
 10
2035.81
 20
1924.49
 10
2036.11
 20
1918.82
 10
2036.11
 20
1910.64
 10
2036.5
 20
1899.81
 10
2038.06
 20
1895.46
 10
2031.64
 20
1895.46
 10
2030.42
 20
1899.93
  0
LWPOLYLINE
  5
603
330
22
100
AcDbEntity
  8
LAYER_1
  6
Continuous
 62
     1
100
AcDbPolyline
 90
       13
 70
   129
 43
0.0
 10
2029.9
 20
1913.64
 10
2019.88
 20
1911.32
 10
2014.52
 20
1910.09
 10
2012.1
 20
1908.1
 10
2011.25
 20
1905.18
 10
2011.71
 20
1902.93
 10
2013.11
 20
1901.09
 10
2015.4
 20
1899.86
 10
2018.55
 20
1899.45
 10
2024.86
 20
1901.0
 10
2028.92
 20
1905.25
 10
2029.9
 20
1911.39
 10
2029.9
 20
1913.64
  0
LWPOLYLINE
  5
612
330
22
100
AcDbEntity
  8
LAYER_1
  6
Continuous
 62
     1
100
AcDbPolyline
 90
       21
 70
   129
 43
0.0
 10
2069.13
 20
1895.46
 10
2069.13
 20
1900.03
 10
2064.87
 20
1895.99
 10
2059.0
 20
1894.64
 10
2054.84
 20
1895.24
 10
2051.03
 20
1897.03
 10
2047.81
 20
1899.89
 10
2045.41
 20
1903.7
 10
2043.91
 20
1908.3
 10
2043.41
 20
1913.54
 10
2045.22
 20
1923.38
 10
2047.48
 20
1927.28
 10
2050.64
 20
1930.15
 10
2054.47
 20
1931.91
 10
2058.72
 20
1932.5
 10
2064.56
 20
1931.12
 10
2068.72
 20
1927.52
 10
2068.72
 20
1945.46
 10
2074.82
 20
1945.46
 10
2074.82
 20
1895.46
 10
2069.13
 20
1895.46
  0
LWPOLYLINE
  5
629
330
22
100
AcDbEntity
  8
LAYER_1
  6
Continuous
 62
     1
100
AcDbPolyline
 90
       17
 70
   129
 43
0.0
 10
2049.72
 20
1913.54
 10
2050.45
 20
1907.46
 10
2052.65
 20
1903.14
 10
2055.85
 20
1900.55
 10
2059.58
 20
1899.69
 10
2063.3
 20
1900.51
 10
2066.42
 20
1902.98
 10
2068.53
 20
1907.14
 10
2069.23
 20
1913.03
 10
2068.51
 20
1919.47
 10
2066.36
 20
1923.94
 10
2063.17
 20
1926.55
 10
2059.3
 20
1927.42
 10
2055.55
 20
1926.58
 10
2052.47
 20
1924.08
 10
2050.41
 20
1919.77
 10
2049.72
 20
1913.54
  0
LWPOLYLINE
  5
63C
330
22
100
AcDbEntity
  8
LAYER_1
  6
Continuous
 62
     1
100
AcDbPolyline
 90
        5
 70
   129
 43
0.0
 10
2086.21
 20
1895.46
 10
2086.21
 20
1902.45
 10
2093.21
 20
1902.45
 10
2093.21
 20
1895.46
 10
2086.21
 20
1895.46
  0
LWPOLYLINE
  5
643
330
22
100
AcDbEntity
  8
LAYER_1
  6
Continuous
 62
     1
100
AcDbPolyline
 90
       10
 70
   129
 43
0.0
 10
2144.71
 20
1895.46
 10
2138.57
 20
1895.46
 10
2138.57
 20
1934.58
 10
2132.75
 20
1930.35
 10
2126.29
 20
1927.18
 10
2126.29
 20
1933.12
 10
2135.29
 20
1938.98
 10
2140.75
 20
1945.67
 10
2144.71
 20
1945.67
 10
2144.71
 20
1895.46
  0
LWPOLYLINE
  5
64F
330
22
100
AcDbEntity
  8
LAYER_1
  6
Continuous
 62
     1
100
AcDbPolyline
 90
       36
 70
   129
 43
0.0
 10
2160.43
 20
1908.56
 10
2166.88
 20
1909.1
 10
2168.07
 20
1904.98
 10
2170.2
 20
1902.03
 10
2173.08
 20
1900.25
 10
2176.49
 20
1899.66
 10
2180.59
 20
1900.49
 10
2184.0
 20
1903.0
 10
2186.300000000001
 20
1906.89
 10
2187.07
 20
1911.87
 10
2186.33
 20
1916.57
 10
2184.12
 20
1920.15
 10
2180.71
 20
1922.43
 10
2176.39
 20
1923.19
 10
2171.04
 20
1921.84
 10
2167.29
 20
1918.35
 10
2161.52
 20
1919.1
 10
2166.36
 20
1944.78
 10
2191.23
 20
1944.78
 10
2191.23
 20
1938.91
 10
2171.28
 20
1938.91
 10
2168.58
 20
1925.48
 10
2173.19
 20
1927.83
 10
2178.030000000001
 20
1928.61
 10
2184.07
 20
1927.48
 10
2189.08
 20
1924.08
 10
2192.46
 20
1918.89
 10
2193.58
 20
1912.41
 10
2192.59
 20
1906.09
 10
2189.63
 20
1900.68
 10
2183.94
 20
1896.13
 10
2176.49
 20
1894.61
 10
2170.300000000001
 20
1895.56
 10
2165.36
 20
1898.43
 10
2161.97
 20
1902.87
 10
2160.43
 20
1908.56
  0
LWPOLYLINE
  5
675
330
22
100
AcDbEntity
  8
LAYER_1
  6
Continuous
 62
     1
100
AcDbPolyline
 90
       21
 70
   129
 43
0.0
 10
2199.28
 20
1920.12
 10
2199.73
 20
1928.12
 10
2201.1
 20
1934.39
 10
2203.37
 20
1939.18
 10
2206.52
 20
1942.73
 10
2210.59
 20
1944.93
 10
2215.58
 20
1945.67
 10
2222.64
 20
1944.05
 10
2227.65
 20
1939.37
 10
2230.76
 20
1931.94
 10
2231.88
 20
1920.12
 10
2231.43
 20
1912.17
 10
2230.08
 20
1905.92
 10
2227.82
 20
1901.12
 10
2224.67
 20
1897.56
 10
2220.6
 20
1895.35
 10
2215.58
 20
1894.61
 10
2209.13
 20
1895.91
 10
2204.22
 20
1899.79
 10
2200.51
 20
1908.0
 10
2199.28
 20
1920.12
  0
LWPOLYLINE
  5
68C
330
22
100
AcDbEntity
  8
LAYER_1
  6
Continuous
 62
     1
100
AcDbPolyline
 90
       17
 70
   129
 43
0.0
 10
2205.59
 20
1920.12
 10
2206.31
 20
1909.87
 10
2208.47
 20
1903.73
 10
2211.69
 20
1900.68
 10
2215.58
 20
1899.66
 10
2219.47
 20
1900.68
 10
2222.69
 20
1903.75
 10
2224.85
 20
1909.89
 10
2225.57
 20
1920.12
 10
2224.85
 20
1930.4
 10
2222.69
 20
1936.53
 10
2219.46
 20
1939.57
 10
2215.51
 20
1940.58
 10
2211.71
 20
1939.69
 10
2208.76
 20
1937.0
 10
2206.38
 20
1930.5
 10
2205.59
 20
1920.12
  0
LWPOLYLINE
  5
69F
330
22
100
AcDbEntity
  8
LAYER_1
  6
Continuous
 62
     1
100
AcDbPolyline
 90
       36
 70
   129
 43
0.0
 10
2239.83
 20
1895.46
 10
2239.83
 20
1931.68
 10
2245.32
 20
1931.68
 10
2245.32
 20
1926.6
 10
2249.86
 20
1930.88
 10
2256.3
 20
1932.5
 10
2262.9
 20
1930.83
 10
2265.1
 20
1928.83
 10
2266.54
 20
1926.16
 10
2271.48
 20
1930.92
 10
2277.72
 20
1932.5
 10
2282.49
 20
1931.76
 10
2286.01
 20
1929.52
 10
2288.18
 20
1925.73
 10
2288.91
 20
1920.33
 10
2288.91
 20
1895.46
 10
2282.8
 20
1895.46
 10
2282.8
 20
1918.28
 10
2282.21
 20
1923.58
 10
2280.04
 20
1926.19
 10
2276.36
 20
1927.18
 10
2272.86
 20
1926.55
 10
2270.01
 20
1924.64
 10
2268.12
 20
1921.34
 10
2267.49
 20
1916.51
 10
2267.49
 20
1895.46
 10
2261.35
 20
1895.46
 10
2261.35
 20
1919.0
 10
2259.85
 20
1925.13
 10
2257.87
 20
1926.67
 10
2254.94
 20
1927.18
 10
2250.15
 20
1925.82
 10
2246.96
 20
1921.83
 10
2245.97
 20
1914.25
 10
2245.97
 20
1895.46
 10
2239.83
 20
1895.46
  0
LWPOLYLINE
  5
6C5
330
22
100
AcDbEntity
  8
LAYER_1
  6
Continuous
 62
     1
100
AcDbPolyline
 90
       36
 70
   129
 43
0.0
 10
2298.02
 20
1895.46
 10
2298.02
 20
1931.68
 10
2303.510000000001
 20
1931.68
 10
2303.510000000001
 20
1926.6
 10
2308.04
 20
1930.88
 10
2314.49
 20
1932.5
 10
2321.09
 20
1930.83
 10
2323.28
 20
1928.83
 10
2324.72
 20
1926.16
 10
2329.67
 20
1930.92
 10
2335.91
 20
1932.5
 10
2340.67
 20
1931.76
 10
2344.2
 20
1929.52
 10
2346.37
 20
1925.73
 10
2347.09
 20
1920.33
 10
2347.09
 20
1895.46
 10
2340.99
 20
1895.46
 10
2340.99
 20
1918.28
 10
2340.39
 20
1923.58
 10
2338.23
 20
1926.19
 10
2334.54
 20
1927.18
 10
2331.05
 20
1926.55
 10
2328.2
 20
1924.64
 10
2326.31
 20
1921.34
 10
2325.68
 20
1916.51
 10
2325.68
 20
1895.46
 10
2319.54
 20
1895.46
 10
2319.54
 20
1919.0
 10
2318.04
 20
1925.13
 10
2316.06
 20
1926.67
 10
2313.12
 20
1927.18
 10
2308.33
 20
1925.82
 10
2305.14
 20
1921.83
 10
2304.15
 20
1914.25
 10
2304.15
 20
1895.46
 10
2298.02
 20
1895.46
  0
LINE
  5
6EB
330
22
100
AcDbEntity
  8
LAYER_1
  6
Continuous
 62
     7
100
AcDbLine
 10
2550.0
 20
1300.0
 30
0.0
 11
2381.67
 21
1553.56
 31
0.0
  0
LINE
  5
6EC
330
22
100
AcDbEntity
  8
LAYER_1
  6
Continuous
 62
     7
100
AcDbLine
 10
2381.67
 20
1553.56
 30
0.0
 11
2331.67
 21
1553.56
 31
0.0
  0
LWPOLYLINE
  5
6ED
330
22
100
AcDbEntity
  8
LAYER_1
  6
Continuous
 62
     7
100
AcDbPolyline
 90
        4
 70
   129
 43
0.0
 10
2508.52
 20
1362.48
 10
2536.09
 20
1333.51
 10
2524.52
 20
1325.82
 10
2508.52
 20
1362.48
  0
LWPOLYLINE
  5
6F3
330
22
100
AcDbEntity
  8
LAYER_1
  6
Continuous
 62
     1
100
AcDbPolyline
 90
       24
 70
   129
 43
0.0
 10
1951.14
 20
1528.56
 10
1951.14
 20
1578.56
 10
1973.31
 20
1578.56
 10
1983.48
 20
1577.21
 10
1986.61
 20
1575.35
 10
1989.04
 20
1572.45
 10
1990.6
 20
1568.86
 10
1991.12
 20
1564.91
 10
1990.26
 20
1560.01
 10
1987.67
 20
1555.94
 10
1983.29
 20
1552.96
 10
1977.03
 20
1551.31
 10
1981.02
 20
1548.82
 10
1986.51
 20
1542.17
 10
1995.21
 20
1528.56
 10
1986.89
 20
1528.56
 10
1980.27
 20
1538.96
 10
1975.5
 20
1545.85
 10
1972.14
 20
1549.19
 10
1969.12
 20
1550.52
 10
1965.43
 20
1550.76
 10
1957.76
 20
1550.76
 10
1957.76
 20
1528.56
 10
1951.14
 20
1528.56
  0
LWPOLYLINE
  5
70D
330
22
100
AcDbEntity
  8
LAYER_1
  6
Continuous
 62
     1
100
AcDbPolyline
 90
       11
 70
   129
 43
0.0
 10
1957.76
 20
1556.49
 10
1971.98
 20
1556.49
 10
1979.08
 20
1557.43
 10
1982.97
 20
1560.43
 10
1984.3
 20
1564.91
 10
1983.65
 20
1568.15
 10
1981.72
 20
1570.75
 10
1978.4
 20
1572.46
 10
1973.59
 20
1573.03
 10
1957.76
 20
1573.03
 10
1957.76
 20
1556.49
  0
LWPOLYLINE
  5
71A
330
22
100
AcDbEntity
  8
LAYER_1
  6
Continuous
 62
     1
100
AcDbPolyline
 90
       34
 70
   129
 43
0.0
 10
2024.34
 20
1533.03
 10
2017.77
 20
1528.93
 10
2011.0
 20
1527.74
 10
2005.72
 20
1528.47
 10
2001.83
 20
1530.66
 10
1999.42
 20
1533.98
 10
1998.62
 20
1538.11
 10
1999.83
 20
1542.97
 10
2003.0
 20
1546.5
 10
2007.42
 20
1548.51
 10
2012.88
 20
1549.43
 10
2023.82
 20
1551.55
 10
2023.86
 20
1553.15
 10
2023.42
 20
1556.35
 10
2022.12
 20
1558.43
 10
2019.19
 20
1560.0
 10
2015.13
 20
1560.52
 10
2011.36
 20
1560.14
 10
2008.73
 20
1559.0
 10
2006.94
 20
1556.9
 10
2005.68
 20
1553.63
 10
1999.68
 20
1554.44
 10
2002.37
 20
1560.67
 10
2007.79
 20
1564.32
 10
2016.01
 20
1565.6
 10
2023.55
 20
1564.51
 10
2027.82
 20
1561.76
 10
2029.73
 20
1557.58
 10
2030.03
 20
1551.92
 10
2030.03
 20
1543.73
 10
2030.42
 20
1532.91
 10
2031.98
 20
1528.56
 10
2025.56
 20
1528.56
 10
2024.34
 20
1533.03
  0
LWPOLYLINE
  5
73E
330
22
100
AcDbEntity
  8
LAYER_1
  6
Continuous
 62
     1
100
AcDbPolyline
 90
       13
 70
   129
 43
0.0
 10
2023.82
 20
1546.74
 10
2013.8
 20
1544.42
 10
2008.44
 20
1543.19
 10
2006.02
 20
1541.19
 10
2005.17
 20
1538.28
 10
2005.63
 20
1536.03
 10
2007.03
 20
1534.19
 10
2009.32
 20
1532.96
 10
2012.47
 20
1532.55
 10
2018.78
 20
1534.1
 10
2022.84
 20
1538.35
 10
2023.82
 20
1544.49
 10
2023.82
 20
1546.74
  0
LWPOLYLINE
  5
74D
330
22
100
AcDbEntity
  8
LAYER_1
  6
Continuous
 62
     1
100
AcDbPolyline
 90
       21
 70
   129
 43
0.0
 10
2063.05
 20
1528.56
 10
2063.05
 20
1533.13
 10
2058.79
 20
1529.09
 10
2052.92
 20
1527.74
 10
2048.760000000001
 20
1528.34
 10
2044.95
 20
1530.13
 10
2041.73
 20
1532.99
 10
2039.33
 20
1536.79
 10
2037.83
 20
1541.39
 10
2037.33
 20
1546.63
 10
2039.14
 20
1556.47
 10
2041.4
 20
1560.37
 10
2044.56
 20
1563.24
 10
2048.39
 20
1565.01
 10
2052.64
 20
1565.6
 10
2058.48
 20
1564.22
 10
2062.64
 20
1560.62
 10
2062.64
 20
1578.56
 10
2068.74
 20
1578.56
 10
2068.74
 20
1528.56
 10
2063.05
 20
1528.56
  0
LWPOLYLINE
  5
764
330
22
100
AcDbEntity
  8
LAYER_1
  6
Continuous
 62
     1
100
AcDbPolyline
 90
       17
 70
   129
 43
0.0
 10
2043.64
 20
1546.63
 10
2044.37
 20
1540.55
 10
2046.57
 20
1536.23
 10
2049.77
 20
1533.65
 10
2053.5
 20
1532.79
 10
2057.22
 20
1533.61
 10
2060.34
 20
1536.08
 10
2062.45
 20
1540.23
 10
2063.15
 20
1546.12
 10
2062.43
 20
1552.57
 10
2060.28
 20
1557.04
 10
2057.09
 20
1559.65
 10
2053.22
 20
1560.52
 10
2049.47
 20
1559.68
 10
2046.39
 20
1557.17
 10
2044.33
 20
1552.87
 10
2043.64
 20
1546.63
  0
LWPOLYLINE
  5
777
330
22
100
AcDbEntity
  8
LAYER_1
  6
Continuous
 62
     1
100
AcDbPolyline
 90
        5
 70
   129
 43
0.0
 10
2080.13
 20
1528.56
 10
2080.13
 20
1535.55
 10
2087.13
 20
1535.55
 10
2087.13
 20
1528.56
 10
2080.13
 20
1528.56
  0
LWPOLYLINE
  5
77E
330
22
100
AcDbEntity
  8
LAYER_1
  6
Continuous
 62
     1
100
AcDbPolyline
 90
       14
 70
   129
 43
0.0
 10
2115.91
 20
1572.01
 10
2115.91
 20
1577.91
 10
2148.28
 20
1577.91
 10
2148.28
 20
1573.13
 10
2138.81
 20
1559.63
 10
2134.66
 20
1551.08
 10
2131.57
 20
1542.3
 10
2129.21
 20
1528.56
 10
2122.9
 20
1528.56
 10
2125.22
 20
1542.81
 10
2127.92
 20
1551.02
 10
2131.58
 20
1558.93
 10
2140.4
 20
1572.01
 10
2115.91
 20
1572.01
  0
LWPOLYLINE
  5
78E
330
22
100
AcDbEntity
  8
LAYER_1
  6
Continuous
 62
     1
100
AcDbPolyline
 90
       36
 70
   129
 43
0.0
 10
2154.35
 20
1541.65
 10
2160.8
 20
1542.2
 10
2161.99
 20
1538.08
 10
2164.12
 20
1535.12
 10
2167.0
 20
1533.35
 10
2170.41
 20
1532.75
 10
2174.510000000001
 20
1533.59
 10
2177.92
 20
1536.1
 10
2180.22
 20
1539.98
 10
2180.99
 20
1544.96
 10
2180.25
 20
1549.66
 10
2178.04
 20
1553.25
 10
2174.63
 20
1555.53
 10
2170.31
 20
1556.29
 10
2164.96
 20
1554.94
 10
2161.21
 20
1551.44
 10
2155.44
 20
1552.19
 10
2160.28
 20
1577.88
 10
2185.15
 20
1577.88
 10
2185.15
 20
1572.01
 10
2165.2
 20
1572.01
 10
2162.5
 20
1558.57
 10
2167.11
 20
1560.92
 10
2171.95
 20
1561.71
 10
2177.99
 20
1560.57
 10
2183.0
 20
1557.17
 10
2186.38
 20
1551.99
 10
2187.5
 20
1545.51
 10
2186.51
 20
1539.18
 10
2183.55
 20
1533.78
 10
2177.86
 20
1529.22
 10
2170.41
 20
1527.7
 10
2164.22
 20
1528.66
 10
2159.28
 20
1531.52
 10
2155.89
 20
1535.97
 10
2154.35
 20
1541.65
  0
LWPOLYLINE
  5
7B4
330
22
100
AcDbEntity
  8
LAYER_1
  6
Continuous
 62
     1
100
AcDbPolyline
 90
       36
 70
   129
 43
0.0
 10
2194.9
 20
1528.56
 10
2194.9
 20
1564.78
 10
2200.39
 20
1564.78
 10
2200.39
 20
1559.7
 10
2204.93
 20
1563.98
 10
2211.38
 20
1565.6
 10
2217.98
 20
1563.93
 10
2220.17
 20
1561.92
 10
2221.61
 20
1559.25
 10
2226.55
 20
1564.01
 10
2232.79
 20
1565.6
 10
2237.56
 20
1564.85
 10
2241.08
 20
1562.61
 10
2243.260000000001
 20
1558.82
 10
2243.98
 20
1553.42
 10
2243.98
 20
1528.56
 10
2237.88
 20
1528.56
 10
2237.88
 20
1551.37
 10
2237.28
 20
1556.68
 10
2235.11
 20
1559.29
 10
2231.43
 20
1560.28
 10
2227.93
 20
1559.64
 10
2225.09
 20
1557.74
 10
2223.19
 20
1554.43
 10
2222.56
 20
1549.6
 10
2222.56
 20
1528.56
 10
2216.42
 20
1528.56
 10
2216.42
 20
1552.09
 10
2214.92
 20
1558.23
 10
2212.94
 20
1559.76
 10
2210.01
 20
1560.28
 10
2205.22
 20
1558.91
 10
2202.03
 20
1554.92
 10
2201.04
 20
1547.35
 10
2201.04
 20
1528.56
 10
2194.9
 20
1528.56
  0
LWPOLYLINE
  5
7DA
330
22
100
AcDbEntity
  8
LAYER_1
  6
Continuous
 62
     1
100
AcDbPolyline
 90
       36
 70
   129
 43
0.0
 10
2253.09
 20
1528.56
 10
2253.09
 20
1564.78
 10
2258.58
 20
1564.78
 10
2258.58
 20
1559.7
 10
2263.12
 20
1563.98
 10
2269.56
 20
1565.6
 10
2276.16
 20
1563.93
 10
2278.360000000001
 20
1561.92
 10
2279.79
 20
1559.25
 10
2284.74
 20
1564.01
 10
2290.98
 20
1565.6
 10
2295.75
 20
1564.85
 10
2299.27
 20
1562.61
 10
2301.44
 20
1558.82
 10
2302.17
 20
1553.42
 10
2302.17
 20
1528.56
 10
2296.06
 20
1528.56
 10
2296.06
 20
1551.37
 10
2295.47
 20
1556.68
 10
2293.3
 20
1559.29
 10
2289.62
 20
1560.28
 10
2286.12
 20
1559.64
 10
2283.27
 20
1557.74
 10
2281.38
 20
1554.43
 10
2280.75
 20
1549.6
 10
2280.75
 20
1528.56
 10
2274.61
 20
1528.56
 10
2274.61
 20
1552.09
 10
2273.11
 20
1558.23
 10
2271.13
 20
1559.76
 10
2268.2
 20
1560.28
 10
2263.41
 20
1558.91
 10
2260.22
 20
1554.92
 10
2259.23
 20
1547.35
 10
2259.23
 20
1528.56
 10
2253.09
 20
1528.56
  0
LINE
  5
800
330
22
100
AcDbEntity
  8
LAYER_1
  6
Continuous
 62
     7
100
AcDbLine
 10
2733.95
 20
821.5010000000001
 30
0.0
 11
2397.85
 21
1101.79
 31
0.0
  0
LWPOLYLINE
  5
801
330
22
100
AcDbEntity
  8
LAYER_1
  6
Continuous
 62
     7
100
AcDbPolyline
 90
        4
 70
   129
 43
0.0
 10
2397.85
 20
1101.79
 10
2432.55
 20
1081.9
 10
2423.65
 20
1071.23
 10
2397.85
 20
1101.79
  0
LWPOLYLINE
  5
807
330
22
100
AcDbEntity
  8
LAYER_1
  6
Continuous
 62
     1
100
AcDbPolyline
 90
       24
 70
   129
 43
0.0
 10
2432.73
 20
1105.56
 10
2463.06
 20
1145.32
 10
2480.69
 20
1131.87
 10
2487.95
 20
1124.63
 10
2489.31
 20
1121.25
 10
2489.48
 20
1117.48
 10
2488.55
 20
1113.68
 10
2486.57
 20
1110.22
 10
2482.91
 20
1106.85
 10
2478.39
 20
1105.18
 10
2473.09
 20
1105.47
 10
2467.11
 20
1107.95
 10
2468.780000000001
 20
1103.55
 10
2469.110000000001
 20
1094.93
 10
2467.77
 20
1078.84
 10
2461.15
 20
1083.88
 10
2462.2
 20
1096.17
 10
2462.58
 20
1104.54
 10
2461.94
 20
1109.24
 10
2460.35
 20
1112.12
 10
2457.56
 20
1114.55
 10
2451.46
 20
1119.2
 10
2437.99
 20
1101.55
 10
2432.73
 20
1105.56
  0
LWPOLYLINE
  5
821
330
22
100
AcDbEntity
  8
LAYER_1
  6
Continuous
 62
     1
100
AcDbPolyline
 90
       11
 70
   129
 43
0.0
 10
2454.940000000001
 20
1123.76
 10
2466.24
 20
1115.13
 10
2472.45
 20
1111.57
 10
2477.37
 20
1111.6
 10
2481.14
 20
1114.36
 10
2482.59
 20
1117.32
 10
2482.63
 20
1120.56
 10
2481.03
 20
1123.94
 10
2477.55
 20
1127.31
 10
2464.97
 20
1136.91
 10
2454.940000000001
 20
1123.76
  0
LWPOLYLINE
  5
82E
330
22
100
AcDbEntity
  8
LAYER_1
  6
Continuous
 62
     1
100
AcDbPolyline
 90
       34
 70
   129
 43
0.0
 10
2492.27
 20
1063.01
 10
2484.57
 20
1063.74
 10
2478.46
 20
1066.9
 10
2474.71
 20
1070.68
 10
2472.94
 20
1074.78
 10
2473.04
 20
1078.88
 10
2474.91
 20
1082.65
 10
2478.820000000001
 20
1085.78
 10
2483.48
 20
1086.66
 10
2488.21
 20
1085.58
 10
2493.11
 20
1083.0
 10
2503.1
 20
1078.04
 10
2504.1
 20
1079.3
 10
2505.69
 20
1082.1
 10
2505.92
 20
1084.56
 10
2504.54
 20
1087.57
 10
2501.62
 20
1090.45
 10
2498.4
 20
1092.43
 10
2495.62
 20
1093.12
 10
2492.92
 20
1092.54
 10
2489.93
 20
1090.7
 10
2485.66
 20
1095.0
 10
2491.58
 20
1098.31
 10
2498.1
 20
1097.92
 10
2505.41
 20
1093.95
 10
2510.74
 20
1088.51
 10
2512.47
 20
1083.75
 10
2511.45
 20
1079.27
 10
2508.26
 20
1074.58
 10
2503.29
 20
1068.07
 10
2497.04
 20
1059.22
 10
2495.63
 20
1054.82
 10
2490.54
 20
1058.71
 10
2492.27
 20
1063.01
  0
LWPOLYLINE
  5
852
330
22
100
AcDbEntity
  8
LAYER_1
  6
Continuous
 62
     1
100
AcDbPolyline
 90
       13
 70
   129
 43
0.0
 10
2500.18
 20
1074.22
 10
2490.8
 20
1078.46
 10
2485.800000000001
 20
1080.73
 10
2482.66
 20
1080.61
 10
2480.22
 20
1078.81
 10
2479.22
 20
1076.74
 10
2479.21
 20
1074.43
 10
2480.29
 20
1072.07
 10
2482.54
 20
1069.83
 10
2488.5
 20
1067.24
 10
2494.3
 20
1068.15
 10
2498.81
 20
1072.43
 10
2500.18
 20
1074.22
  0
LWPOLYLINE
  5
861
330
22
100
AcDbEntity
  8
LAYER_1
  6
Continuous
 62
     1
100
AcDbPolyline
 90
       21
 70
   129
 43
0.0
 10
2519.29
 20
1034.66
 10
2522.06
 20
1038.29
 10
2516.22
 20
1037.66
 10
2510.74
 20
1040.15
 10
2507.79
 20
1043.15
 10
2505.85
 20
1046.88
 10
2505.03
 20
1051.11
 10
2505.42
 20
1055.6
 10
2507.02
 20
1060.16
 10
2509.8
 20
1064.63
 10
2517.21
 20
1071.36
 10
2521.37
 20
1073.09
 10
2525.63
 20
1073.45
 10
2529.74
 20
1072.53
 10
2533.48
 20
1070.42
 10
2537.28
 20
1065.78
 10
2538.41
 20
1060.4
 10
2549.29
 20
1074.66
 10
2554.14
 20
1070.96
 10
2523.81
 20
1031.21
 10
2519.29
 20
1034.66
  0
LWPOLYLINE
  5
878
330
22
100
AcDbEntity
  8
LAYER_1
  6
Continuous
 62
     1
100
AcDbPolyline
 90
       17
 70
   129
 43
0.0
 10
2514.82
 20
1060.8
 10
2511.72
 20
1055.53
 10
2510.84
 20
1050.75
 10
2511.82
 20
1046.76
 10
2514.26
 20
1043.82
 10
2517.72
 20
1042.21
 10
2521.69
 20
1042.28
 10
2525.89
 20
1044.31
 10
2530.02
 20
1048.56
 10
2533.36
 20
1054.12
 10
2534.36
 20
1058.98
 10
2533.4
 20
1062.99
 10
2530.86
 20
1066.03
 10
2527.37
 20
1067.64
 10
2523.4
 20
1067.52
 10
2519.15
 20
1065.34
 10
2514.82
 20
1060.8
  0
LWPOLYLINE
  5
88B
330
22
100
AcDbEntity
  8
LAYER_1
  6
Continuous
 62
     1
100
AcDbPolyline
 90
        5
 70
   129
 43
0.0
 10
2531.82
 20
1022.98
 10
2536.06
 20
1028.54
 10
2541.62
 20
1024.3
 10
2537.380000000001
 20
1018.74
 10
2531.82
 20
1022.98
  0
LWPOLYLINE
  5
892
330
22
100
AcDbEntity
  8
LAYER_1
  6
Continuous
 62
     1
100
AcDbPolyline
 90
       12
 70
   129
 43
0.0
 10
2574.530000000001
 20
988.2739999999998
 10
2581.8
 20
997.7919999999999
 10
2564.55
 20
1010.95
 10
2567.96
 20
1015.42
 10
2605.76
 20
1027.34
 10
2609.74
 20
1024.3
 10
2590.09
 20
998.5419999999999
 10
2595.46
 20
994.4460000000001
 10
2592.05
 20
989.972
 10
2586.68
 20
994.068
 10
2579.42
 20
984.5499999999999
 10
2574.530000000001
 20
988.2739999999998
  0
LWPOLYLINE
  5
8A0
330
22
100
AcDbEntity
  8
LAYER_1
  6
Continuous
 62
     1
100
AcDbPolyline
 90
        4
 70
   129
 43
0.0
 10
2585.21
 20
1002.27
 10
2598.88
 20
1020.19
 10
2572.760000000001
 20
1011.76
 10
2585.21
 20
1002.27
  0
LWPOLYLINE
  5
8A6
330
22
100
AcDbEntity
  8
LAYER_1
  6
Continuous
 62
     1
100
AcDbPolyline
 90
       21
 70
   129
 43
0.0
 10
2603.68
 20
994.936
 10
2608.9
 20
1001.02
 10
2613.79
 20
1005.18
 10
2618.5
 20
1007.61
 10
2623.16
 20
1008.52
 10
2627.72
 20
1007.8
 10
2632.14
 20
1005.36
 10
2636.77
 20
999.7860000000001
 10
2637.92
 20
993.03
 10
2635.88
 20
985.236
 10
2629.6
 20
975.158
 10
2624.420000000001
 20
969.1110000000001
 10
2619.55
 20
964.961
 10
2614.85
 20
962.5189999999999
 10
2610.18
 20
961.5959999999999
 10
2605.6
 20
962.307
 10
2601.17
 20
964.7639999999999
 10
2596.820000000001
 20
969.71
 10
2595.280000000001
 20
975.7749999999999
 10
2597.31
 20
984.546
 10
2603.68
 20
994.936
  0
LWPOLYLINE
  5
8BD
330
22
100
AcDbEntity
  8
LAYER_1
  6
Continuous
 62
     1
100
AcDbPolyline
 90
       17
 70
   129
 43
0.0
 10
2608.7
 20
991.108
 10
2603.05
 20
982.52
 10
2601.050000000001
 20
976.331
 10
2601.75
 20
971.949
 10
2604.23
 20
968.7769999999998
 10
2607.94
 20
967.2299999999999
 10
2612.37
 20
967.7180000000001
 10
2617.81
 20
971.288
 10
2624.59
 20
978.9849999999999
 10
2630.25
 20
987.5910000000001
 10
2632.25
 20
993.776
 10
2631.52
 20
998.159
 10
2629.0
 20
1001.36
 10
2625.43
 20
1002.95
 10
2621.46
 20
1002.61
 10
2615.62
 20
998.877
 10
2608.7
 20
991.108
  0
LWPOLYLINE
  5
8D0
330
22
100
AcDbEntity
  8
LAYER_1
  6
Continuous
 62
     1
100
AcDbPolyline
 90
       21
 70
   129
 43
0.0
 10
2633.52
 20
970.0560000000001
 10
2638.73
 20
976.1410000000001
 10
2643.62
 20
980.297
 10
2648.33
 20
982.727
 10
2652.99
 20
983.637
 10
2657.56
 20
982.9210000000001
 10
2661.97
 20
980.4760000000001
 10
2666.6
 20
974.906
 10
2667.75
 20
968.1499999999999
 10
2665.71
 20
960.3560000000001
 10
2659.44
 20
950.2779999999999
 10
2654.260000000001
 20
944.231
 10
2649.38
 20
940.0809999999999
 10
2644.68
 20
937.6389999999998
 10
2640.02
 20
936.716
 10
2635.44
 20
937.427
 10
2631.0
 20
939.8839999999999
 10
2626.66
 20
944.8300000000001
 10
2625.12
 20
950.895
 10
2627.14
 20
959.6659999999999
 10
2633.52
 20
970.0560000000001
  0
LWPOLYLINE
  5
8E7
330
22
100
AcDbEntity
  8
LAYER_1
  6
Continuous
 62
     1
100
AcDbPolyline
 90
       17
 70
   129
 43
0.0
 10
2638.53
 20
966.228
 10
2632.89
 20
957.6399999999999
 10
2630.88
 20
951.4509999999999
 10
2631.59
 20
947.0679999999999
 10
2634.06
 20
943.8969999999999
 10
2637.780000000001
 20
942.35
 10
2642.2
 20
942.838
 10
2647.64
 20
946.4069999999999
 10
2654.42
 20
954.105
 10
2660.08
 20
962.711
 10
2662.08
 20
968.8960000000001
 10
2661.36
 20
973.2789999999999
 10
2658.84
 20
976.477
 10
2655.27
 20
978.072
 10
2651.29
 20
977.7260000000001
 10
2645.46
 20
973.9969999999999
 10
2638.53
 20
966.228
  0
LWPOLYLINE
  5
8FA
330
22
100
AcDbEntity
  8
LAYER_1
  6
Continuous
 62
     1
100
AcDbPolyline
 90
       36
 70
   129
 43
0.0
 10
2649.75
 20
924.5369999999999
 10
2671.72
 20
953.3330000000001
 10
2676.08
 20
950.0019999999999
 10
2673.0
 20
945.9619999999999
 10
2679.2
 20
946.6139999999999
 10
2685.31
 20
943.9919999999998
 10
2689.55
 20
938.6599999999999
 10
2690.08
 20
935.735
 10
2689.6
 20
932.742
 10
2696.42
 20
933.5239999999998
 10
2702.34
 20
930.9989999999999
 10
2705.68
 20
927.515
 10
2707.12
 20
923.6
 10
2706.55
 20
919.2680000000001
 10
2703.85
 20
914.5329999999999
 10
2688.77
 20
894.766
 10
2683.91
 20
898.47
 10
2697.75
 20
916.61
 10
2700.5
 20
921.188
 10
2700.36
 20
924.576
 10
2698.030000000001
 20
927.5969999999999
 10
2694.86
 20
929.212
 10
2691.44
 20
929.4249999999999
 10
2687.93
 20
927.946
 10
2684.5
 20
924.4889999999999
 10
2671.74
 20
907.7580000000001
 10
2666.86
 20
911.4819999999999
 10
2681.13
 20
930.192
 10
2683.66
 20
935.983
 10
2683.02
 20
938.403
 10
2681.0
 20
940.5889999999999
 10
2676.36
 20
942.411
 10
2671.41
 20
941.173
 10
2666.030000000001
 20
935.753
 10
2654.63
 20
920.813
 10
2649.75
 20
924.5369999999999
  0
LWPOLYLINE
  5
920
330
22
100
AcDbEntity
  8
LAYER_1
  6
Continuous
 62
     1
100
AcDbPolyline
 90
       36
 70
   129
 43
0.0
 10
2694.43
 20
887.2710000000001
 10
2716.4
 20
916.0679999999999
 10
2720.77
 20
912.7369999999999
 10
2717.69
 20
908.697
 10
2723.89
 20
909.3480000000001
 10
2730.0
 20
906.726
 10
2734.23
 20
901.3939999999999
 10
2734.76
 20
898.4689999999998
 10
2734.28
 20
895.4760000000002
 10
2741.1
 20
896.2589999999998
 10
2747.03
 20
893.7339999999998
 10
2750.360000000001
 20
890.2499999999999
 10
2751.81
 20
886.3339999999999
 10
2751.24
 20
882.0019999999999
 10
2748.530000000001
 20
877.2680000000001
 10
2733.45
 20
857.501
 10
2728.6
 20
861.204
 10
2742.44
 20
879.344
 10
2745.18
 20
883.923
 10
2745.04
 20
887.311
 10
2742.71
 20
890.3310000000001
 10
2739.55
 20
891.947
 10
2736.13
 20
892.159
 10
2732.62
 20
890.681
 10
2729.19
 20
887.223
 10
2716.42
 20
870.493
 10
2711.54
 20
874.2169999999999
 10
2725.820000000001
 20
892.9260000000001
 10
2728.35
 20
898.718
 10
2727.71
 20
901.138
 10
2725.69
 20
903.3239999999999
 10
2721.05
 20
905.146
 10
2716.09
 20
903.9069999999998
 10
2710.710000000001
 20
898.488
 10
2699.31
 20
883.547
 10
2694.43
 20
887.2710000000001
  0
LINE
  5
946
330
22
100
AcDbEntity
  8
LAYER_1
  6
Continuous
 62
     7
100
AcDbLine
 10
2549.440000000001
 20
777.875
 30
0.0
 11
2235.66
 21
1366.36
 31
0.0
  0
LINE
  5
947
330
22
100
AcDbEntity
  8
LAYER_1
  6
Continuous
 62
     7
100
AcDbLine
 10
2235.66
 20
1366.36
 30
0.0
 11
2185.66
 21
1366.36
 31
0.0
  0
LWPOLYLINE
  5
948
330
22
100
AcDbEntity
  8
LAYER_1
  6
Continuous
 62
     7
100
AcDbPolyline
 90
        4
 70
   129
 43
0.0
 10
2268.4
 20
1304.96
 10
2293.06
 20
1273.47
 10
2280.800000000001
 20
1266.93
 10
2268.4
 20
1304.96
  0
LWPOLYLINE
  5
94E
330
22
100
AcDbEntity
  8
LAYER_1
  6
Continuous
 62
     1
100
AcDbPolyline
 90
       24
 70
   129
 43
0.0
 10
1766.28
 20
1341.36
 10
1766.28
 20
1391.36
 10
1788.45
 20
1391.36
 10
1798.62
 20
1390.01
 10
1801.75
 20
1388.15
 10
1804.18
 20
1385.26
 10
1805.74
 20
1381.67
 10
1806.26
 20
1377.72
 10
1805.4
 20
1372.82
 10
1802.81
 20
1368.75
 10
1798.43
 20
1365.76
 10
1792.17
 20
1364.11
 10
1796.16
 20
1361.62
 10
1801.65
 20
1354.97
 10
1810.35
 20
1341.36
 10
1802.03
 20
1341.36
 10
1795.41
 20
1351.76
 10
1790.64
 20
1358.65
 10
1787.28
 20
1362.0
 10
1784.26
 20
1363.33
 10
1780.57
 20
1363.56
 10
1772.9
 20
1363.56
 10
1772.9
 20
1341.36
 10
1766.28
 20
1341.36
  0
LWPOLYLINE
  5
968
330
22
100
AcDbEntity
  8
LAYER_1
  6
Continuous
 62
     1
100
AcDbPolyline
 90
       11
 70
   129
 43
0.0
 10
1772.9
 20
1369.29
 10
1787.119999999999
 20
1369.29
 10
1794.22
 20
1370.23
 10
1798.11
 20
1373.23
 10
1799.44
 20
1377.72
 10
1798.79
 20
1380.95
 10
1796.86
 20
1383.55
 10
1793.54
 20
1385.26
 10
1788.73
 20
1385.84
 10
1772.9
 20
1385.84
 10
1772.9
 20
1369.29
  0
LWPOLYLINE
  5
975
330
22
100
AcDbEntity
  8
LAYER_1
  6
Continuous
 62
     1
100
AcDbPolyline
 90
       34
 70
   129
 43
0.0
 10
1839.48
 20
1345.83
 10
1832.91
 20
1341.74
 10
1826.14
 20
1340.54
 10
1820.86
 20
1341.27
 10
1816.97
 20
1343.46
 10
1814.56
 20
1346.78
 10
1813.76
 20
1350.91
 10
1814.97
 20
1355.77
 10
1818.14
 20
1359.3
 10
1822.56
 20
1361.31
 10
1828.02
 20
1362.23
 10
1838.96
 20
1364.35
 10
1839.0
 20
1365.95
 10
1838.56
 20
1369.15
 10
1837.26
 20
1371.24
 10
1834.33
 20
1372.8
 10
1830.27
 20
1373.32
 10
1826.5
 20
1372.94
 10
1823.87
 20
1371.8
 10
1822.08
 20
1369.7
 10
1820.82
 20
1366.43
 10
1814.82
 20
1367.25
 10
1817.51
 20
1373.47
 10
1822.93
 20
1377.12
 10
1831.15
 20
1378.4
 10
1838.69
 20
1377.31
 10
1842.96
 20
1374.56
 10
1844.87
 20
1370.39
 10
1845.17
 20
1364.72
 10
1845.17
 20
1356.54
 10
1845.56
 20
1345.71
 10
1847.12
 20
1341.36
 10
1840.7
 20
1341.36
 10
1839.48
 20
1345.83
  0
LWPOLYLINE
  5
999
330
22
100
AcDbEntity
  8
LAYER_1
  6
Continuous
 62
     1
100
AcDbPolyline
 90
       13
 70
   129
 43
0.0
 10
1838.96
 20
1359.54
 10
1828.94
 20
1357.22
 10
1823.58
 20
1355.99
 10
1821.16
 20
1354.0
 10
1820.31
 20
1351.08
 10
1820.77
 20
1348.83
 10
1822.17
 20
1346.99
 10
1824.46
 20
1345.76
 10
1827.61
 20
1345.35
 10
1833.92
 20
1346.9
 10
1837.98
 20
1351.15
 10
1838.96
 20
1357.29
 10
1838.96
 20
1359.54
  0
LWPOLYLINE
  5
9A8
330
22
100
AcDbEntity
  8
LAYER_1
  6
Continuous
 62
     1
100
AcDbPolyline
 90
       21
 70
   129
 43
0.0
 10
1878.19
 20
1341.36
 10
1878.19
 20
1345.93
 10
1873.93
 20
1341.89
 10
1868.06
 20
1340.54
 10
1863.9
 20
1341.14
 10
1860.09
 20
1342.93
 10
1856.87
 20
1345.79
 10
1854.47
 20
1349.6
 10
1852.97
 20
1354.2
 10
1852.47
 20
1359.44
 10
1854.28
 20
1369.28
 10
1856.54
 20
1373.18
 10
1859.7
 20
1376.05
 10
1863.53
 20
1377.81
 10
1867.78
 20
1378.4
 10
1873.62
 20
1377.02
 10
1877.78
 20
1373.42
 10
1877.78
 20
1391.36
 10
1883.88
 20
1391.36
 10
1883.88
 20
1341.36
 10
1878.19
 20
1341.36
  0
LWPOLYLINE
  5
9BF
330
22
100
AcDbEntity
  8
LAYER_1
  6
Continuous
 62
     1
100
AcDbPolyline
 90
       17
 70
   129
 43
0.0
 10
1858.78
 20
1359.44
 10
1859.51
 20
1353.36
 10
1861.71
 20
1349.04
 10
1864.91
 20
1346.45
 10
1868.64
 20
1345.59
 10
1872.36
 20
1346.41
 10
1875.48
 20
1348.88
 10
1877.59
 20
1353.04
 10
1878.29
 20
1358.93
 10
1877.57
 20
1365.37
 10
1875.42
 20
1369.84
 10
1872.23
 20
1372.45
 10
1868.36
 20
1373.32
 10
1864.61
 20
1372.48
 10
1861.53
 20
1369.98
 10
1859.47
 20
1365.67
 10
1858.78
 20
1359.44
  0
LWPOLYLINE
  5
9D2
330
22
100
AcDbEntity
  8
LAYER_1
  6
Continuous
 62
     1
100
AcDbPolyline
 90
        5
 70
   129
 43
0.0
 10
1895.27
 20
1341.36
 10
1895.27
 20
1348.35
 10
1902.27
 20
1348.35
 10
1902.27
 20
1341.36
 10
1895.27
 20
1341.36
  0
LWPOLYLINE
  5
9D9
330
22
100
AcDbEntity
  8
LAYER_1
  6
Continuous
 62
     1
100
AcDbPolyline
 90
       35
 70
   129
 43
0.0
 10
1962.5
 20
1379.12
 10
1956.39
 20
1378.64
 10
1954.07
 20
1383.89
 10
1951.29
 20
1385.86
 10
1947.93
 20
1386.52
 10
1942.78
 20
1384.88
 10
1940.19
 20
1382.28
 10
1938.21
 20
1378.71
 10
1936.94
 20
1373.79
 10
1936.47
 20
1367.15
 10
1941.9
 20
1372.16
 10
1948.62
 20
1373.8
 10
1954.3
 20
1372.67
 10
1959.07
 20
1369.28
 10
1962.31
 20
1364.1
 10
1963.38
 20
1357.6
 10
1962.88
 20
1353.06
 10
1961.36
 20
1348.85
 10
1958.95
 20
1345.28
 10
1955.78
 20
1342.66
 10
1951.99
 20
1341.05
 10
1947.73
 20
1340.51
 10
1940.76
 20
1341.92
 10
1935.21
 20
1346.15
 10
1931.58
 20
1353.63
 10
1930.37
 20
1364.76
 10
1931.71
 20
1377.28
 10
1933.38
 20
1382.05
 10
1935.72
 20
1385.84
 10
1941.21
 20
1390.13
 10
1948.31
 20
1391.57
 10
1953.68
 20
1390.74
 10
1957.98
 20
1388.26
 10
1960.99
 20
1384.32
 10
1962.5
 20
1379.12
  0
LWPOLYLINE
  5
9FE
330
22
100
AcDbEntity
  8
LAYER_1
  6
Continuous
 62
     1
100
AcDbPolyline
 90
       16
 70
   129
 43
0.0
 10
1937.43
 20
1357.56
 10
1938.78
 20
1351.49
 10
1942.55
 20
1347.07
 10
1947.63
 20
1345.56
 10
1951.24
 20
1346.34
 10
1954.31
 20
1348.69
 10
1956.41
 20
1352.39
 10
1957.11
 20
1357.22
 10
1956.42
 20
1361.86
 10
1954.349999999999
 20
1365.39
 10
1951.23
 20
1367.63
 10
1947.39
 20
1368.37
 10
1943.54
 20
1367.63
 10
1940.33
 20
1365.39
 10
1938.15
 20
1361.94
 10
1937.43
 20
1357.56
  0
LWPOLYLINE
  5
A10
330
22
100
AcDbEntity
  8
LAYER_1
  6
Continuous
 62
     1
100
AcDbPolyline
 90
       21
 70
   129
 43
0.0
 10
1969.49
 20
1366.02
 10
1969.95
 20
1374.02
 10
1971.31
 20
1380.29
 10
1973.58
 20
1385.08
 10
1976.74
 20
1388.63
 10
1980.8
 20
1390.83
 10
1985.79
 20
1391.57
 10
1992.85
 20
1389.95
 10
1997.87
 20
1385.27
 10
2000.97
 20
1377.84
 10
2002.1
 20
1366.02
 10
2001.64
 20
1358.07
 10
2000.29
 20
1351.82
 10
1998.03
 20
1347.02
 10
1994.88
 20
1343.46
 10
1990.81
 20
1341.25
 10
1985.79
 20
1340.51
 10
1979.34
 20
1341.8
 10
1974.44
 20
1345.69
 10
1970.73
 20
1353.9
 10
1969.49
 20
1366.02
  0
LWPOLYLINE
  5
A27
330
22
100
AcDbEntity
  8
LAYER_1
  6
Continuous
 62
     1
100
AcDbPolyline
 90
       17
 70
   129
 43
0.0
 10
1975.8
 20
1366.02
 10
1976.52
 20
1355.77
 10
1978.68
 20
1349.63
 10
1981.9
 20
1346.58
 10
1985.79
 20
1345.56
 10
1989.69
 20
1346.58
 10
1992.9
 20
1349.65
 10
1995.07
 20
1355.79
 10
1995.79
 20
1366.02
 10
1995.07
 20
1376.29
 10
1992.9
 20
1382.43
 10
1989.67
 20
1385.47
 10
1985.72
 20
1386.48
 10
1981.92
 20
1385.59
 10
1978.97
 20
1382.9
 10
1976.59
 20
1376.4
 10
1975.8
 20
1366.02
  0
LWPOLYLINE
  5
A3A
330
22
100
AcDbEntity
  8
LAYER_1
  6
Continuous
 62
     1
100
AcDbPolyline
 90
       21
 70
   129
 43
0.0
 10
2008.34
 20
1366.02
 10
2008.79
 20
1374.02
 10
2010.16
 20
1380.29
 10
2012.43
 20
1385.08
 10
2015.58
 20
1388.63
 10
2019.65
 20
1390.83
 10
2024.64
 20
1391.57
 10
2031.7
 20
1389.95
 10
2036.71
 20
1385.27
 10
2039.82
 20
1377.84
 10
2040.94
 20
1366.02
 10
2040.49
 20
1358.07
 10
2039.14
 20
1351.82
 10
2036.88
 20
1347.02
 10
2033.73
 20
1343.46
 10
2029.66
 20
1341.25
 10
2024.64
 20
1340.51
 10
2018.19
 20
1341.8
 10
2013.28
 20
1345.69
 10
2009.57
 20
1353.9
 10
2008.34
 20
1366.02
  0
LWPOLYLINE
  5
A51
330
22
100
AcDbEntity
  8
LAYER_1
  6
Continuous
 62
     1
100
AcDbPolyline
 90
       17
 70
   129
 43
0.0
 10
2014.65
 20
1366.02
 10
2015.37
 20
1355.77
 10
2017.53
 20
1349.63
 10
2020.75
 20
1346.58
 10
2024.64
 20
1345.56
 10
2028.53
 20
1346.58
 10
2031.75
 20
1349.65
 10
2033.91
 20
1355.79
 10
2034.63
 20
1366.02
 10
2033.91
 20
1376.29
 10
2031.75
 20
1382.43
 10
2028.52
 20
1385.47
 10
2024.57
 20
1386.48
 10
2020.77
 20
1385.59
 10
2017.82
 20
1382.9
 10
2015.44
 20
1376.4
 10
2014.65
 20
1366.02
  0
LWPOLYLINE
  5
A64
330
22
100
AcDbEntity
  8
LAYER_1
  6
Continuous
 62
     1
100
AcDbPolyline
 90
       36
 70
   129
 43
0.0
 10
2048.89
 20
1341.36
 10
2048.89
 20
1377.58
 10
2054.38
 20
1377.58
 10
2054.38
 20
1372.5
 10
2058.92
 20
1376.78
 10
2065.36
 20
1378.4
 10
2071.96
 20
1376.73
 10
2074.16
 20
1374.73
 10
2075.6
 20
1372.06
 10
2080.54
 20
1376.82
 10
2086.78
 20
1378.4
 10
2091.55
 20
1377.65
 10
2095.07
 20
1375.42
 10
2097.24
 20
1371.63
 10
2097.97
 20
1366.23
 10
2097.97
 20
1341.36
 10
2091.86
 20
1341.36
 10
2091.86
 20
1364.18
 10
2091.27
 20
1369.48
 10
2089.1
 20
1372.09
 10
2085.42
 20
1373.08
 10
2081.92
 20
1372.45
 10
2079.07
 20
1370.54
 10
2077.18
 20
1367.24
 10
2076.550000000001
 20
1362.41
 10
2076.550000000001
 20
1341.36
 10
2070.41
 20
1341.36
 10
2070.41
 20
1364.89
 10
2068.91
 20
1371.03
 10
2066.93
 20
1372.57
 10
2064.0
 20
1373.08
 10
2059.21
 20
1371.72
 10
2056.02
 20
1367.73
 10
2055.03
 20
1360.15
 10
2055.03
 20
1341.36
 10
2048.89
 20
1341.36
  0
LWPOLYLINE
  5
A8A
330
22
100
AcDbEntity
  8
LAYER_1
  6
Continuous
 62
     1
100
AcDbPolyline
 90
       36
 70
   129
 43
0.0
 10
2107.08
 20
1341.36
 10
2107.08
 20
1377.58
 10
2112.57
 20
1377.58
 10
2112.57
 20
1372.5
 10
2117.1
 20
1376.78
 10
2123.55
 20
1378.4
 10
2130.15
 20
1376.73
 10
2132.340000000001
 20
1374.73
 10
2133.78
 20
1372.06
 10
2138.73
 20
1376.82
 10
2144.97
 20
1378.4
 10
2149.73
 20
1377.65
 10
2153.26
 20
1375.42
 10
2155.43
 20
1371.63
 10
2156.15
 20
1366.23
 10
2156.15
 20
1341.36
 10
2150.05
 20
1341.36
 10
2150.05
 20
1364.18
 10
2149.45
 20
1369.48
 10
2147.29
 20
1372.09
 10
2143.6
 20
1373.08
 10
2140.11
 20
1372.45
 10
2137.26
 20
1370.54
 10
2135.37
 20
1367.24
 10
2134.74
 20
1362.41
 10
2134.74
 20
1341.36
 10
2128.6
 20
1341.36
 10
2128.6
 20
1364.89
 10
2127.1
 20
1371.03
 10
2125.12
 20
1372.57
 10
2122.18
 20
1373.08
 10
2117.39
 20
1371.72
 10
2114.2
 20
1367.73
 10
2113.21
 20
1360.15
 10
2113.21
 20
1341.36
 10
2107.08
 20
1341.36
  0
LINE
  5
AB0
330
22
100
AcDbEntity
  8
LAYER_1
  6
Continuous
 62
     7
100
AcDbLine
 10
1029.18
 20
1100.0
 30
0.0
 11
791.9539999999999
 21
1283.64
 31
0.0
  0
LWPOLYLINE
  5
AB1
330
22
100
AcDbEntity
  8
LAYER_1
  6
Continuous
 62
     7
100
AcDbPolyline
 90
        4
 70
   129
 43
0.0
 10
791.9539999999999
 20
1283.64
 10
827.355
 20
1265.02
 10
818.851
 20
1254.03
 10
791.9539999999999
 20
1283.64
  0
LWPOLYLINE
  5
AB7
330
22
100
AcDbEntity
  8
LAYER_1
  6
Continuous
 62
     1
100
AcDbPolyline
 90
       24
 70
   129
 43
0.0
 10
772.115
 20
1330.61
 10
802.7219999999999
 20
1370.15
 10
820.2519999999999
 20
1356.58
 10
827.4650000000001
 20
1349.29
 10
828.799
 20
1345.9
 10
828.9479999999999
 20
1342.13
 10
827.9849999999999
 20
1338.33
 10
825.98
 20
1334.89
 10
822.297
 20
1331.54
 10
817.7649999999999
 20
1329.91
 10
812.4719999999999
 20
1330.23
 10
806.511
 20
1332.76
 10
808.1419999999999
 20
1328.34
 10
808.413
 20
1319.72
 10
806.9600000000001
 20
1303.64
 10
800.38
 20
1308.73
 10
801.515
 20
1321.01
 10
801.9569999999999
 20
1329.38
 10
801.346
 20
1334.08
 10
799.7739999999999
 20
1336.98
 10
797.0069999999999
 20
1339.42
 10
790.939
 20
1344.12
 10
777.3469999999999
 20
1326.56
 10
772.115
 20
1330.61
  0
LWPOLYLINE
  5
AD1
330
22
100
AcDbEntity
  8
LAYER_1
  6
Continuous
 62
     1
100
AcDbPolyline
 90
       11
 70
   129
 43
0.0
 10
794.446
 20
1348.65
 10
805.6929999999999
 20
1339.94
 10
811.8769999999999
 20
1336.34
 10
816.788
 20
1336.34
 10
820.5859999999999
 20
1339.07
 10
822.0549999999999
 20
1342.02
 10
822.1189999999999
 20
1345.26
 10
820.542
 20
1348.65
 10
817.0860000000001
 20
1352.04
 10
804.5719999999999
 20
1361.73
 10
794.446
 20
1348.65
  0
LWPOLYLINE
  5
ADE
330
22
100
AcDbEntity
  8
LAYER_1
  6
Continuous
 62
     1
100
AcDbPolyline
 90
       34
 70
   129
 43
0.0
 10
832.727
 20
1289.34
 10
825.0299999999999
 20
1290.12
 10
818.946
 20
1293.33
 10
815.2189999999999
 20
1297.13
 10
813.4760000000001
 20
1301.25
 10
813.6080000000001
 20
1305.35
 10
815.503
 20
1309.1
 10
819.4359999999999
 20
1312.2
 10
824.1049999999999
 20
1313.05
 10
828.8289999999999
 20
1311.94
 10
833.708
 20
1309.33
 10
843.66
 20
1304.3
 10
844.668
 20
1305.55
 10
846.2810000000001
 20
1308.34
 10
846.5279999999999
 20
1310.79
 10
845.171
 20
1313.82
 10
842.2729999999999
 20
1316.72
 10
839.0639999999999
 20
1318.72
 10
836.2869999999999
 20
1319.43
 10
833.581
 20
1318.87
 10
830.5850000000001
 20
1317.05
 10
826.34
 20
1321.37
 10
832.2799999999999
 20
1324.65
 10
838.802
 20
1324.21
 10
846.085
 20
1320.19
 10
851.3769999999999
 20
1314.72
 10
853.068
 20
1309.93
 10
852.021
 20
1305.46
 10
848.798
 20
1300.8
 10
843.787
 20
1294.32
 10
837.4680000000001
 20
1285.52
 10
836.034
 20
1281.13
 10
830.963
 20
1285.06
 10
832.727
 20
1289.34
  0
LWPOLYLINE
  5
B02
330
22
100
AcDbEntity
  8
LAYER_1
  6
Continuous
 62
     1
100
AcDbPolyline
 90
       13
 70
   129
 43
0.0
 10
840.7160000000001
 20
1300.5
 10
831.367
 20
1304.8
 10
826.3810000000001
 20
1307.11
 10
823.245
 20
1307.01
 10
820.786
 20
1305.23
 10
819.7749999999999
 20
1303.16
 10
819.7499999999999
 20
1300.85
 10
820.809
 20
1298.48
 10
823.0499999999999
 20
1296.23
 10
828.9889999999999
 20
1293.6
 10
834.7979999999999
 20
1294.47
 10
839.338
 20
1298.72
 10
840.7160000000001
 20
1300.5
  0
LWPOLYLINE
  5
B11
330
22
100
AcDbEntity
  8
LAYER_1
  6
Continuous
 62
     1
100
AcDbPolyline
 90
       21
 70
   129
 43
0.0
 10
860.603
 20
1262.11
 10
863.4010000000001
 20
1265.73
 10
857.562
 20
1265.14
 10
852.092
 20
1267.67
 10
849.1699999999999
 20
1270.68
 10
847.2560000000001
 20
1274.43
 10
846.4589999999999
 20
1278.66
 10
846.888
 20
1283.15
 10
848.52
 20
1287.7
 10
851.3330000000001
 20
1292.15
 10
858.786
 20
1298.82
 10
862.9599999999999
 20
1300.52
 10
867.218
 20
1300.86
 10
871.326
 20
1299.91
 10
875.051
 20
1297.77
 10
878.817
 20
1293.11
 10
879.9049999999999
 20
1287.72
 10
890.886
 20
1301.9
 10
895.7139999999998
 20
1298.16
 10
865.107
 20
1258.63
 10
860.603
 20
1262.11
  0
LWPOLYLINE
  5
B28
330
22
100
AcDbEntity
  8
LAYER_1
  6
Continuous
 62
     1
100
AcDbPolyline
 90
       17
 70
   129
 43
0.0
 10
856.323
 20
1288.29
 10
853.181
 20
1283.03
 10
852.2739999999998
 20
1278.27
 10
853.221
 20
1274.27
 10
855.64
 20
1271.3
 10
859.087
 20
1269.68
 10
863.063
 20
1269.72
 10
867.276
 20
1271.71
 10
871.436
 20
1275.94
 10
874.816
 20
1281.48
 10
875.8510000000001
 20
1286.32
 10
874.92
 20
1290.34
 10
872.398
 20
1293.4
 10
868.9169999999998
 20
1295.04
 10
864.9449999999999
 20
1294.94
 10
860.6810000000001
 20
1292.8
 10
856.323
 20
1288.29
  0
LWPOLYLINE
  5
B3B
330
22
100
AcDbEntity
  8
LAYER_1
  6
Continuous
 62
     1
100
AcDbPolyline
 90
        5
 70
   129
 43
0.0
 10
874.1150000000001
 20
1251.65
 10
878.395
 20
1257.18
 10
883.924
 20
1252.9
 10
879.6439999999998
 20
1247.37
 10
874.1150000000001
 20
1251.65
  0
LWPOLYLINE
  5
B42
330
22
100
AcDbEntity
  8
LAYER_1
  6
Continuous
 62
     1
100
AcDbPolyline
 90
       52
 70
   129
 43
0.0
 10
910.1889999999999
 20
1240.42
 10
915.545
 20
1237.31
 10
913.926
 20
1232.88
 10
913.7869999999999
 20
1229.16
 10
914.958
 20
1226.07
 10
917.2719999999999
 20
1223.55
 10
920.8910000000001
 20
1221.7
 10
924.895
 20
1221.44
 10
928.7209999999999
 20
1222.73
 10
931.806
 20
1225.5
 10
933.6219999999999
 20
1228.97
 10
933.891
 20
1232.7
 10
932.67
 20
1236.25
 10
930.0160000000001
 20
1239.18
 10
926.173
 20
1241.29
 10
930.0110000000001
 20
1245.13
 10
930.751
 20
1244.47
 10
934.0110000000001
 20
1242.6
 10
937.587
 20
1241.77
 10
941.0399999999999
 20
1242.38
 10
943.9299999999999
 20
1244.84
 10
945.368
 20
1247.63
 10
945.547
 20
1250.66
 10
944.495
 20
1253.58
 10
942.239
 20
1256.02
 10
939.2979999999999
 20
1257.59
 10
936.1410000000001
 20
1257.9
 10
932.868
 20
1256.87
 10
929.5799999999999
 20
1254.44
 10
925.3939999999998
 20
1259.06
 10
930.203
 20
1262.26
 10
935.2949999999999
 20
1263.49
 10
940.393
 20
1262.76
 10
945.221
 20
1260.1
 10
950.106
 20
1254.1
 10
951.2389999999999
 20
1250.59
 10
951.3389999999999
 20
1247.08
 10
948.836
 20
1240.87
 10
943.8489999999999
 20
1237.27
 10
937.188
 20
1237.07
 10
939.3399999999999
 20
1233.42
 10
940.036
 20
1229.5
 10
939.2719999999998
 20
1225.5
 10
937.0410000000001
 20
1221.62
 10
932.3939999999998
 20
1217.56
 10
926.4689999999999
 20
1215.76
 10
920.1039999999998
 20
1216.37
 10
914.135
 20
1219.55
 10
909.9709999999999
 20
1224.02
 10
907.892
 20
1229.34
 10
907.947
 20
1235.0
 10
910.1889999999999
 20
1240.42
  0
LWPOLYLINE
  5
B78
330
22
100
AcDbEntity
  8
LAYER_1
  6
Continuous
 62
     1
100
AcDbPolyline
 90
       21
 70
   129
 43
0.0
 10
947.896
 20
1225.72
 10
953.1549999999999
 20
1231.77
 10
958.0759999999999
 20
1235.89
 10
962.8
 20
1238.29
 10
967.469
 20
1239.17
 10
972.028
 20
1238.42
 10
976.425
 20
1235.94
 10
981.0160000000001
 20
1230.34
 10
982.1200000000001
 20
1223.58
 10
980.023
 20
1215.8
 10
973.6789999999999
 20
1205.76
 10
968.454
 20
1199.75
 10
963.554
 20
1195.64
 10
958.8369999999999
 20
1193.23
 10
954.1639999999999
 20
1192.34
 10
949.59
 20
1193.08
 10
945.171
 20
1195.57
 10
940.8599999999999
 20
1200.55
 10
939.3629999999999
 20
1206.62
 10
941.4509999999999
 20
1215.38
 10
947.896
 20
1225.72
  0
LWPOLYLINE
  5
B8F
330
22
100
AcDbEntity
  8
LAYER_1
  6
Continuous
 62
     1
100
AcDbPolyline
 90
       17
 70
   129
 43
0.0
 10
952.885
 20
1221.86
 10
947.179
 20
1213.31
 10
945.1319999999999
 20
1207.14
 10
945.8070000000001
 20
1202.75
 10
948.2610000000001
 20
1199.56
 10
951.965
 20
1197.99
 10
956.3889999999998
 20
1198.44
 10
961.856
 20
1201.98
 10
968.689
 20
1209.63
 10
974.4089999999999
 20
1218.19
 10
976.453
 20
1224.36
 10
975.7569999999999
 20
1228.75
 10
973.2599999999999
 20
1231.97
 10
969.705
 20
1233.59
 10
965.728
 20
1233.27
 10
959.8639999999999
 20
1229.58
 10
952.885
 20
1221.86
  0
LWPOLYLINE
  5
BA2
330
22
100
AcDbEntity
  8
LAYER_1
  6
Continuous
 62
     1
100
AcDbPolyline
 90
       21
 70
   129
 43
0.0
 10
978.6139999999999
 20
1201.94
 10
983.8739999999999
 20
1207.99
 10
988.795
 20
1212.11
 10
993.5189999999998
 20
1214.51
 10
998.187
 20
1215.39
 10
1002.75
 20
1214.64
 10
1007.14
 20
1212.16
 10
1011.73
 20
1206.56
 10
1012.84
 20
1199.8
 10
1010.74
 20
1192.02
 10
1004.4
 20
1181.98
 10
999.173
 20
1175.97
 10
994.2719999999999
 20
1171.86
 10
989.5560000000001
 20
1169.45
 10
984.8830000000001
 20
1168.56
 10
980.3089999999999
 20
1169.3
 10
975.8889999999999
 20
1171.79
 10
971.579
 20
1176.77
 10
970.082
 20
1182.84
 10
972.17
 20
1191.6
 10
978.6139999999999
 20
1201.94
  0
LWPOLYLINE
  5
BB9
330
22
100
AcDbEntity
  8
LAYER_1
  6
Continuous
 62
     1
100
AcDbPolyline
 90
       17
 70
   129
 43
0.0
 10
983.6039999999998
 20
1198.08
 10
977.8969999999999
 20
1189.53
 10
975.8510000000001
 20
1183.36
 10
976.5249999999999
 20
1178.97
 10
978.9789999999999
 20
1175.78
 10
982.684
 20
1174.21
 10
987.108
 20
1174.66
 10
992.575
 20
1178.2
 10
999.408
 20
1185.85
 10
1005.13
 20
1194.41
 10
1007.17
 20
1200.58
 10
1006.48
 20
1204.97
 10
1003.98
 20
1208.19
 10
1000.42
 20
1209.81
 10
996.446
 20
1209.49
 10
990.5830000000001
 20
1205.8
 10
983.6039999999998
 20
1198.08
  0
LWPOLYLINE
  5
BCC
330
22
100
AcDbEntity
  8
LAYER_1
  6
Continuous
 62
     1
100
AcDbPolyline
 90
       36
 70
   129
 43
0.0
 10
995.587
 20
1157.62
 10
1017.76
 20
1186.26
 10
1022.1
 20
1182.9
 10
1018.99
 20
1178.88
 10
1025.2
 20
1179.49
 10
1031.29
 20
1176.83
 10
1035.48
 20
1171.46
 10
1035.99
 20
1168.54
 10
1035.49
 20
1165.55
 10
1042.32
 20
1166.28
 10
1048.22
 20
1163.71
 10
1051.54
 20
1160.21
 10
1052.95
 20
1156.28
 10
1052.35
 20
1151.95
 10
1049.62
 20
1147.24
 10
1034.4
 20
1127.58
 10
1029.57
 20
1131.31
 10
1043.54
 20
1149.36
 10
1046.31
 20
1153.92
 10
1046.19
 20
1157.31
 10
1043.89
 20
1160.34
 10
1040.73
 20
1161.98
 10
1037.32
 20
1162.22
 10
1033.8
 20
1160.76
 10
1030.34
 20
1157.33
 10
1017.46
 20
1140.69
 10
1012.6
 20
1144.45
 10
1027.01
 20
1163.06
 10
1029.58
 20
1168.83
 10
1028.96
 20
1171.25
 10
1026.95
 20
1173.45
 10
1022.33
 20
1175.31
 10
1017.36
 20
1174.1
 10
1011.94
 20
1168.72
 10
1000.44
 20
1153.86
 10
995.587
 20
1157.62
  0
LWPOLYLINE
  5
BF2
330
22
100
AcDbEntity
  8
LAYER_1
  6
Continuous
 62
     1
100
AcDbPolyline
 90
       36
 70
   129
 43
0.0
 10
1041.6
 20
1122.0
 10
1063.77
 20
1150.64
 10
1068.11
 20
1147.28
 10
1065.0
 20
1143.26
 10
1071.21
 20
1143.87
 10
1077.3
 20
1141.21
 10
1081.49
 20
1135.85
 10
1082.0
 20
1132.92
 10
1081.5
 20
1129.93
 10
1088.33
 20
1130.66
 10
1094.23
 20
1128.1
 10
1097.55
 20
1124.59
 10
1098.96
 20
1120.66
 10
1098.36
 20
1116.34
 10
1095.63
 20
1111.62
 10
1080.41
 20
1091.96
 10
1075.58
 20
1095.7
 10
1089.55
 20
1113.74
 10
1092.32
 20
1118.3
 10
1092.21
 20
1121.69
 10
1089.9
 20
1124.72
 10
1086.74
 20
1126.36
 10
1083.33
 20
1126.6
 10
1079.81
 20
1125.14
 10
1076.35
 20
1121.71
 10
1063.47
 20
1105.07
 10
1058.62
 20
1108.83
 10
1073.02
 20
1127.44
 10
1075.59
 20
1133.21
 10
1074.97
 20
1135.64
 10
1072.96
 20
1137.84
 10
1068.34
 20
1139.69
 10
1063.37
 20
1138.49
 10
1057.96
 20
1133.11
 10
1046.45
 20
1118.24
 10
1041.6
 20
1122.0
  0
LINE
  5
C18
330
22
100
AcDbEntity
  8
LAYER_1
  6
Continuous
 62
     7
100
AcDbLine
 10
2550.0
 20
1280.0
 30
0.0
 11
2550.0
 21
400.0
 31
0.0
  0
LWPOLYLINE
  5
C19
330
22
100
AcDbEntity
  8
LAYER_1
  6
Continuous
 62
     7
100
AcDbPolyline
 90
        4
 70
   129
 43
0.0
 10
2550.0
 20
420.0
 10
2589.39
 20
426.9459999999999
 10
2589.39
 20
413.054
 10
2550.0
 20
420.0
  0
LINE
  5
C1F
330
22
100
AcDbEntity
  8
LAYER_1
  6
Continuous
 62
     7
100
AcDbLine
 10
2550.0
 20
420.0
 30
0.0
 11
2700.0
 21
420.0
 31
0.0
  0
LWPOLYLINE
  5
C20
330
22
100
AcDbEntity
  8
LAYER_1
  6
Continuous
 62
     7
100
AcDbPolyline
 90
        4
 70
   129
 43
0.0
 10
2700.0
 20
420.0
 10
2660.61
 20
413.054
 10
2660.61
 20
426.9459999999999
 10
2700.0
 20
420.0
  0
LINE
  5
C26
330
22
100
AcDbEntity
  8
LAYER_1
  6
Continuous
 62
     7
100
AcDbLine
 10
2700.0
 20
400.0
 30
0.0
 11
2700.0
 21
1280.0
 31
0.0
  0
LWPOLYLINE
  5
C27
330
22
100
AcDbEntity
  8
LAYER_1
  6
Continuous
 62
     1
100
AcDbPolyline
 90
       10
 70
   129
 43
0.0
 10
2534.57
 20
445.0
 10
2528.43
 20
445.0
 10
2528.43
 20
484.1199999999999
 10
2522.61
 20
479.8909999999999
 10
2516.15
 20
476.719
 10
2516.15
 20
482.6529999999999
 10
2525.15
 20
488.52
 10
2530.61
 20
495.2049999999999
 10
2534.57
 20
495.2049999999999
 10
2534.57
 20
445.0
  0
LWPOLYLINE
  5
C33
330
22
100
AcDbEntity
  8
LAYER_1
  6
Continuous
 62
     1
100
AcDbPolyline
 90
       36
 70
   129
 43
0.0
 10
2550.29
 20
458.0969999999999
 10
2556.74
 20
458.643
 10
2557.93
 20
454.52
 10
2560.06
 20
451.5649999999999
 10
2562.94
 20
449.788
 10
2566.35
 20
449.195
 10
2570.45
 20
450.0309999999999
 10
2573.86
 20
452.538
 10
2576.16
 20
456.4259999999999
 10
2576.93
 20
461.4049999999999
 10
2576.19
 20
466.103
 10
2573.980000000001
 20
469.693
 10
2570.57
 20
471.97
 10
2566.25
 20
472.729
 10
2560.9
 20
471.3809999999999
 10
2557.15
 20
467.8849999999999
 10
2551.38
 20
468.6359999999999
 10
2556.22
 20
494.318
 10
2581.09
 20
494.318
 10
2581.09
 20
488.452
 10
2561.14
 20
488.452
 10
2558.44
 20
475.014
 10
2563.05
 20
477.367
 10
2567.89
 20
478.1509999999999
 10
2573.93
 20
477.017
 10
2578.94
 20
473.615
 10
2582.320000000001
 20
468.4309999999999
 10
2583.44
 20
461.951
 10
2582.45
 20
455.624
 10
2579.48
 20
450.218
 10
2573.8
 20
445.665
 10
2566.35
 20
444.1469999999999
 10
2560.16
 20
445.1019999999999
 10
2555.22
 20
447.9669999999999
 10
2551.83
 20
452.41
 10
2550.29
 20
458.0969999999999
  0
LWPOLYLINE
  5
C59
330
22
100
AcDbEntity
  8
LAYER_1
  6
Continuous
 62
     1
100
AcDbPolyline
 90
       21
 70
   129
 43
0.0
 10
2589.14
 20
469.6589999999999
 10
2589.59
 20
477.6609999999999
 10
2590.96
 20
483.9319999999999
 10
2593.23
 20
488.7199999999999
 10
2596.38
 20
492.2709999999999
 10
2600.45
 20
494.4709999999999
 10
2605.44
 20
495.2049999999999
 10
2612.5
 20
493.585
 10
2617.510000000001
 20
488.912
 10
2620.62
 20
481.477
 10
2621.74
 20
469.6589999999999
 10
2621.29
 20
461.708
 10
2619.94
 20
455.454
 10
2617.68
 20
450.6619999999999
 10
2614.53
 20
447.0979999999999
 10
2610.46
 20
444.885
 10
2605.44
 20
444.1469999999999
 10
2598.99
 20
445.443
 10
2594.08
 20
449.3319999999999
 10
2590.37
 20
457.5339999999999
 10
2589.14
 20
469.6589999999999
  0
LWPOLYLINE
  5
C70
330
22
100
AcDbEntity
  8
LAYER_1
  6
Continuous
 62
     1
100
AcDbPolyline
 90
       17
 70
   129
 43
0.0
 10
2595.45
 20
469.6589999999999
 10
2596.17
 20
459.4059999999999
 10
2598.33
 20
453.2709999999999
 10
2601.55
 20
450.2139999999999
 10
2605.44
 20
449.195
 10
2609.33
 20
450.218
 10
2612.550000000001
 20
453.288
 10
2614.71
 20
459.4269999999999
 10
2615.43
 20
469.6589999999999
 10
2614.71
 20
479.933
 10
2612.550000000001
 20
486.064
 10
2609.32
 20
489.108
 10
2605.37
 20
490.123
 10
2601.570000000001
 20
489.2269999999999
 10
2598.62
 20
486.5419999999999
 10
2596.24
 20
480.036
 10
2595.45
 20
469.6589999999999
  0
LWPOLYLINE
  5
C83
330
22
100
AcDbEntity
  8
LAYER_1
  6
Continuous
 62
     1
100
AcDbPolyline
 90
       36
 70
   129
 43
0.0
 10
2629.69
 20
445.0
 10
2629.69
 20
481.221
 10
2635.18
 20
481.221
 10
2635.18
 20
476.139
 10
2639.72
 20
480.42
 10
2646.16
 20
482.04
 10
2652.760000000001
 20
480.368
 10
2654.96
 20
478.365
 10
2656.39
 20
475.6959999999999
 10
2661.34
 20
480.454
 10
2667.58
 20
482.04
 10
2672.35
 20
481.293
 10
2675.87
 20
479.055
 10
2678.04
 20
475.265
 10
2678.77
 20
469.864
 10
2678.77
 20
445.0
 10
2672.66
 20
445.0
 10
2672.66
 20
467.8169999999999
 10
2672.07
 20
473.1209999999999
 10
2669.9
 20
475.7299999999999
 10
2666.22
 20
476.719
 10
2662.72
 20
476.0839999999999
 10
2659.87
 20
474.178
 10
2657.98
 20
470.874
 10
2657.35
 20
466.044
 10
2657.35
 20
445.0
 10
2651.21
 20
445.0
 10
2651.21
 20
468.533
 10
2649.71
 20
474.673
 10
2647.73
 20
476.207
 10
2644.8
 20
476.719
 10
2640.01
 20
475.355
 10
2636.82
 20
471.364
 10
2635.83
 20
463.7929999999999
 10
2635.83
 20
445.0
 10
2629.69
 20
445.0
  0
LWPOLYLINE
  5
CA9
330
22
100
AcDbEntity
  8
LAYER_1
  6
Continuous
 62
     1
100
AcDbPolyline
 90
       36
 70
   129
 43
0.0
 10
2687.88
 20
445.0
 10
2687.88
 20
481.221
 10
2693.37
 20
481.221
 10
2693.37
 20
476.139
 10
2697.900000000001
 20
480.42
 10
2704.35
 20
482.04
 10
2710.95
 20
480.368
 10
2713.14
 20
478.365
 10
2714.58
 20
475.6959999999999
 10
2719.530000000001
 20
480.454
 10
2725.77
 20
482.04
 10
2730.53
 20
481.293
 10
2734.06
 20
479.055
 10
2736.23
 20
475.265
 10
2736.95
 20
469.864
 10
2736.95
 20
445.0
 10
2730.85
 20
445.0
 10
2730.85
 20
467.8169999999999
 10
2730.25
 20
473.1209999999999
 10
2728.09
 20
475.7299999999999
 10
2724.4
 20
476.719
 10
2720.91
 20
476.0839999999999
 10
2718.06
 20
474.178
 10
2716.17
 20
470.874
 10
2715.54
 20
466.044
 10
2715.54
 20
445.0
 10
2709.4
 20
445.0
 10
2709.4
 20
468.533
 10
2707.9
 20
474.673
 10
2705.92
 20
476.207
 10
2702.98
 20
476.719
 10
2698.19
 20
475.355
 10
2695.0
 20
471.364
 10
2694.01
 20
463.7929999999999
 10
2694.01
 20
445.0
 10
2687.88
 20
445.0
  0
LINE
  5
CCF
330
22
100
AcDbEntity
  8
LAYER_1
  6
Continuous
 62
     7
100
AcDbLine
 10
1900.0
 20
880.0
 30
0.0
 11
1900.0
 21
370.0
 31
0.0
  0
LWPOLYLINE
  5
CD0
330
22
100
AcDbEntity
  8
LAYER_1
  6
Continuous
 62
     7
100
AcDbPolyline
 90
        4
 70
   129
 43
0.0
 10
1900.0
 20
390.0
 10
1939.39
 20
396.946
 10
1939.39
 20
383.054
 10
1900.0
 20
390.0
  0
LINE
  5
CD6
330
22
100
AcDbEntity
  8
LAYER_1
  6
Continuous
 62
     7
100
AcDbLine
 10
1900.0
 20
390.0
 30
0.0
 11
2700.0
 21
390.0
 31
0.0
  0
LWPOLYLINE
  5
CD7
330
22
100
AcDbEntity
  8
LAYER_1
  6
Continuous
 62
     7
100
AcDbPolyline
 90
        4
 70
   129
 43
0.0
 10
2700.0
 20
390.0
 10
2660.61
 20
383.054
 10
2660.61
 20
396.946
 10
2700.0
 20
390.0
  0
LINE
  5
CDD
330
22
100
AcDbEntity
  8
LAYER_1
  6
Continuous
 62
     7
100
AcDbLine
 10
2700.0
 20
370.0
 30
0.0
 11
2700.0
 21
880.0
 31
0.0
  0
LWPOLYLINE
  5
CDE
330
22
100
AcDbEntity
  8
LAYER_1
  6
Continuous
 62
     1
100
AcDbPolyline
 90
       33
 70
   129
 43
0.0
 10
2195.89
 20
442.1149999999999
 10
2192.56
 20
443.8109999999999
 10
2190.23
 20
446.105
 10
2188.85
 20
448.953
 10
2188.39
 20
452.3119999999999
 10
2189.37
 20
457.3349999999999
 10
2192.31
 20
461.4869999999999
 10
2196.88
 20
464.2749999999999
 10
2202.75
 20
465.205
 10
2208.65
 20
464.254
 10
2213.280000000001
 20
461.402
 10
2216.28
 20
457.185
 10
2217.27
 20
452.1419999999999
 10
2216.82
 20
448.889
 10
2215.45
 20
446.088
 10
2213.15
 20
443.8069999999999
 10
2209.91
 20
442.1149999999999
 10
2213.96
 20
440.153
 10
2216.92
 20
437.2709999999999
 10
2218.72
 20
433.605
 10
2219.32
 20
429.291
 10
2218.19
 20
423.39
 10
2214.79
 20
418.513
 10
2209.53
 20
415.239
 10
2202.85
 20
414.1469999999999
 10
2196.16
 20
415.243
 10
2190.91
 20
418.5299999999999
 10
2187.51
 20
423.4539999999999
 10
2186.37
 20
429.461
 10
2186.99
 20
433.9419999999999
 10
2188.85
 20
437.6299999999999
 10
2191.84
 20
440.3959999999999
 10
2195.89
 20
442.1149999999999
  0
LWPOLYLINE
  5
D01
330
22
100
AcDbEntity
  8
LAYER_1
  6
Continuous
 62
     1
100
AcDbPolyline
 90
       17
 70
   129
 43
0.0
 10
2194.66
 20
452.517
 10
2195.23
 20
449.294
 10
2196.95
 20
446.719
 10
2199.57
 20
445.0309999999999
 10
2202.88
 20
444.4679999999999
 10
2206.11
 20
445.026
 10
2208.7
 20
446.7019999999999
 10
2210.4
 20
449.1869999999999
 10
2210.97
 20
452.1759999999999
 10
2210.38
 20
455.2839999999999
 10
2208.63
 20
457.8549999999999
 10
2206.01
 20
459.5809999999999
 10
2202.81
 20
460.1569999999999
 10
2199.6
 20
459.5939999999999
 10
2196.98
 20
457.906
 10
2195.24
 20
455.433
 10
2194.66
 20
452.517
  0
LWPOLYLINE
  5
D14
330
22
100
AcDbEntity
  8
LAYER_1
  6
Continuous
 62
     1
100
AcDbPolyline
 90
       16
 70
   129
 43
0.0
 10
2192.68
 20
429.427
 10
2193.93
 20
424.345
 10
2197.63
 20
420.542
 10
2202.92
 20
419.195
 10
2206.93
 20
419.903
 10
2210.18
 20
422.026
 10
2212.33
 20
425.2399999999999
 10
2213.05
 20
429.2219999999999
 10
2212.31
 20
433.273
 10
2210.1
 20
436.5549999999999
 10
2206.77
 20
438.73
 10
2202.71
 20
439.454
 10
2198.75
 20
438.738
 10
2195.53
 20
436.589
 10
2193.4
 20
433.366
 10
2192.68
 20
429.427
  0
LWPOLYLINE
  5
D26
330
22
100
AcDbEntity
  8
LAYER_1
  6
Continuous
 62
     1
100
AcDbPolyline
 90
       21
 70
   129
 43
0.0
 10
2225.29
 20
439.6589999999999
 10
2225.75
 20
447.6609999999999
 10
2227.11
 20
453.932
 10
2229.38
 20
458.72
 10
2232.54
 20
462.2709999999999
 10
2236.6
 20
464.4709999999999
 10
2241.59
 20
465.205
 10
2248.65
 20
463.5849999999999
 10
2253.67
 20
458.912
 10
2256.77
 20
451.4769999999999
 10
2257.9
 20
439.6589999999999
 10
2257.44
 20
431.708
 10
2256.09
 20
425.454
 10
2253.83
 20
420.662
 10
2250.68
 20
417.098
 10
2246.61
 20
414.885
 10
2241.59
 20
414.1469999999999
 10
2235.14
 20
415.443
 10
2230.24
 20
419.3319999999999
 10
2226.53
 20
427.5339999999999
 10
2225.29
 20
439.6589999999999
  0
LWPOLYLINE
  5
D3D
330
22
100
AcDbEntity
  8
LAYER_1
  6
Continuous
 62
     1
100
AcDbPolyline
 90
       17
 70
   129
 43
0.0
 10
2231.6
 20
439.6589999999999
 10
2232.32
 20
429.4059999999999
 10
2234.48
 20
423.2709999999999
 10
2237.7
 20
420.2139999999999
 10
2241.59
 20
419.195
 10
2245.49
 20
420.218
 10
2248.7
 20
423.2879999999999
 10
2250.87
 20
429.427
 10
2251.59
 20
439.6589999999999
 10
2250.87
 20
449.933
 10
2248.7
 20
456.064
 10
2245.47
 20
459.1079999999999
 10
2241.52
 20
460.123
 10
2237.72
 20
459.227
 10
2234.77
 20
456.5419999999999
 10
2232.39
 20
450.0359999999999
 10
2231.6
 20
439.6589999999999
  0
LWPOLYLINE
  5
D50
330
22
100
AcDbEntity
  8
LAYER_1
  6
Continuous
 62
     1
100
AcDbPolyline
 90
       21
 70
   129
 43
0.0
 10
2264.14
 20
439.6589999999999
 10
2264.59
 20
447.6609999999999
 10
2265.96
 20
453.932
 10
2268.23
 20
458.72
 10
2271.38
 20
462.2709999999999
 10
2275.45
 20
464.4709999999999
 10
2280.44
 20
465.205
 10
2287.5
 20
463.5849999999999
 10
2292.51
 20
458.912
 10
2295.62
 20
451.4769999999999
 10
2296.74
 20
439.6589999999999
 10
2296.29
 20
431.708
 10
2294.94
 20
425.454
 10
2292.68
 20
420.662
 10
2289.53
 20
417.098
 10
2285.46
 20
414.885
 10
2280.44
 20
414.1469999999999
 10
2273.99
 20
415.443
 10
2269.08
 20
419.3319999999999
 10
2265.37
 20
427.5339999999999
 10
2264.14
 20
439.6589999999999
  0
LWPOLYLINE
  5
D67
330
22
100
AcDbEntity
  8
LAYER_1
  6
Continuous
 62
     1
100
AcDbPolyline
 90
       17
 70
   129
 43
0.0
 10
2270.45
 20
439.6589999999999
 10
2271.17
 20
429.4059999999999
 10
2273.33
 20
423.2709999999999
 10
2276.55
 20
420.2139999999999
 10
2280.44
 20
419.195
 10
2284.33
 20
420.218
 10
2287.55
 20
423.2879999999999
 10
2289.71
 20
429.427
 10
2290.43
 20
439.6589999999999
 10
2289.71
 20
449.933
 10
2287.55
 20
456.064
 10
2284.320000000001
 20
459.1079999999999
 10
2280.37
 20
460.123
 10
2276.57
 20
459.227
 10
2273.62
 20
456.5419999999999
 10
2271.24
 20
450.0359999999999
 10
2270.45
 20
439.6589999999999
  0
LWPOLYLINE
  5
D7A
330
22
100
AcDbEntity
  8
LAYER_1
  6
Continuous
 62
     1
100
AcDbPolyline
 90
       36
 70
   129
 43
0.0
 10
2304.69
 20
415.0
 10
2304.69
 20
451.221
 10
2310.18
 20
451.221
 10
2310.18
 20
446.139
 10
2314.72
 20
450.4199999999999
 10
2321.16
 20
452.04
 10
2327.76
 20
450.3680000000001
 10
2329.96
 20
448.3649999999999
 10
2331.39
 20
445.6959999999999
 10
2336.34
 20
450.454
 10
2342.58
 20
452.04
 10
2347.35
 20
451.2929999999999
 10
2350.87
 20
449.0549999999999
 10
2353.04
 20
445.265
 10
2353.77
 20
439.864
 10
2353.77
 20
415.0
 10
2347.66
 20
415.0
 10
2347.66
 20
437.8169999999999
 10
2347.07
 20
443.121
 10
2344.9
 20
445.73
 10
2341.22
 20
446.719
 10
2337.72
 20
446.084
 10
2334.87
 20
444.178
 10
2332.98
 20
440.874
 10
2332.35
 20
436.044
 10
2332.35
 20
415.0
 10
2326.21
 20
415.0
 10
2326.21
 20
438.533
 10
2324.71
 20
444.673
 10
2322.73
 20
446.2069999999999
 10
2319.8
 20
446.719
 10
2315.01
 20
445.3549999999999
 10
2311.82
 20
441.364
 10
2310.83
 20
433.793
 10
2310.83
 20
415.0
 10
2304.69
 20
415.0
  0
LWPOLYLINE
  5
DA0
330
22
100
AcDbEntity
  8
LAYER_1
  6
Continuous
 62
     1
100
AcDbPolyline
 90
       36
 70
   129
 43
0.0
 10
2362.88
 20
415.0
 10
2362.88
 20
451.221
 10
2368.37
 20
451.221
 10
2368.37
 20
446.139
 10
2372.9
 20
450.4199999999999
 10
2379.35
 20
452.04
 10
2385.95
 20
450.3680000000001
 10
2388.14
 20
448.3649999999999
 10
2389.58
 20
445.6959999999999
 10
2394.53
 20
450.454
 10
2400.77
 20
452.04
 10
2405.530000000001
 20
451.2929999999999
 10
2409.06
 20
449.0549999999999
 10
2411.23
 20
445.265
 10
2411.95
 20
439.864
 10
2411.95
 20
415.0
 10
2405.85
 20
415.0
 10
2405.85
 20
437.8169999999999
 10
2405.25
 20
443.121
 10
2403.090000000001
 20
445.73
 10
2399.4
 20
446.719
 10
2395.91
 20
446.084
 10
2393.06
 20
444.178
 10
2391.17
 20
440.874
 10
2390.54
 20
436.044
 10
2390.54
 20
415.0
 10
2384.4
 20
415.0
 10
2384.4
 20
438.533
 10
2382.9
 20
444.673
 10
2380.92
 20
446.2069999999999
 10
2377.98
 20
446.719
 10
2373.19
 20
445.3549999999999
 10
2370.0
 20
441.364
 10
2369.01
 20
433.793
 10
2369.01
 20
415.0
 10
2362.88
 20
415.0
  0
LINE
  5
DC6
330
22
100
AcDbEntity
  8
LAYER_1
  6
Continuous
 62
     7
100
AcDbLine
 10
1700.0
 20
1280.0
 30
0.0
 11
1700.0
 21
260.624
 31
0.0
  0
LWPOLYLINE
  5
DC7
330
22
100
AcDbEntity
  8
LAYER_1
  6
Continuous
 62
     7
100
AcDbPolyline
 90
        4
 70
   129
 43
0.0
 10
1700.0
 20
280.624
 10
1739.39
 20
287.57
 10
1739.39
 20
273.678
 10
1700.0
 20
280.624
  0
LINE
  5
DCD
330
22
100
AcDbEntity
  8
LAYER_1
  6
Continuous
 62
     7
100
AcDbLine
 10
1700.0
 20
280.624
 30
0.0
 11
2700.0
 21
280.624
 31
0.0
  0
LWPOLYLINE
  5
DCE
330
22
100
AcDbEntity
  8
LAYER_1
  6
Continuous
 62
     7
100
AcDbPolyline
 90
        4
 70
   129
 43
0.0
 10
2700.0
 20
280.624
 10
2660.61
 20
273.678
 10
2660.61
 20
287.57
 10
2700.0
 20
280.624
  0
LINE
  5
DD4
330
22
100
AcDbEntity
  8
LAYER_1
  6
Continuous
 62
     7
100
AcDbLine
 10
2700.0
 20
260.624
 30
0.0
 11
2700.0
 21
1280.0
 31
0.0
  0
LWPOLYLINE
  5
DD5
330
22
100
AcDbEntity
  8
LAYER_1
  6
Continuous
 62
     1
100
AcDbPolyline
 90
       10
 70
   129
 43
0.0
 10
2090.14
 20
305.624
 10
2084.0
 20
305.624
 10
2084.0
 20
344.744
 10
2078.19
 20
340.515
 10
2071.73
 20
337.343
 10
2071.73
 20
343.277
 10
2080.73
 20
349.144
 10
2086.19
 20
355.829
 10
2090.14
 20
355.829
 10
2090.14
 20
305.624
  0
LWPOLYLINE
  5
DE1
330
22
100
AcDbEntity
  8
LAYER_1
  6
Continuous
 62
     1
100
AcDbPolyline
 90
       21
 70
   129
 43
0.0
 10
2105.87
 20
330.283
 10
2106.32
 20
338.285
 10
2107.69
 20
344.556
 10
2109.96
 20
349.344
 10
2113.11
 20
352.895
 10
2117.18
 20
355.095
 10
2122.17
 20
355.829
 10
2129.23
 20
354.209
 10
2134.24
 20
349.536
 10
2137.35
 20
342.101
 10
2138.47
 20
330.283
 10
2138.02
 20
322.332
 10
2136.66
 20
316.078
 10
2134.41
 20
311.286
 10
2131.260000000001
 20
307.722
 10
2127.19
 20
305.509
 10
2122.17
 20
304.7709999999999
 10
2115.71
 20
306.067
 10
2110.81
 20
309.956
 10
2107.1
 20
318.158
 10
2105.87
 20
330.283
  0
LWPOLYLINE
  5
DF8
330
22
100
AcDbEntity
  8
LAYER_1
  6
Continuous
 62
     1
100
AcDbPolyline
 90
       17
 70
   129
 43
0.0
 10
2112.18
 20
330.283
 10
2112.9
 20
320.03
 10
2115.06
 20
313.895
 10
2118.28
 20
310.838
 10
2122.17
 20
309.819
 10
2126.06
 20
310.842
 10
2129.28
 20
313.9120000000001
 10
2131.44
 20
320.051
 10
2132.16
 20
330.283
 10
2131.44
 20
340.5569999999999
 10
2129.28
 20
346.6880000000001
 10
2126.04
 20
349.732
 10
2122.1
 20
350.747
 10
2118.3
 20
349.851
 10
2115.35
 20
347.166
 10
2112.97
 20
340.66
 10
2112.18
 20
330.283
  0
LWPOLYLINE
  5
E0B
330
22
100
AcDbEntity
  8
LAYER_1
  6
Continuous
 62
     1
100
AcDbPolyline
 90
       21
 70
   129
 43
0.0
 10
2144.71
 20
330.283
 10
2145.17
 20
338.285
 10
2146.54
 20
344.556
 10
2148.81
 20
349.344
 10
2151.96
 20
352.895
 10
2156.02
 20
355.095
 10
2161.02
 20
355.829
 10
2168.08
 20
354.209
 10
2173.09
 20
349.536
 10
2176.19
 20
342.101
 10
2177.32
 20
330.283
 10
2176.87
 20
322.332
 10
2175.51
 20
316.078
 10
2173.26
 20
311.286
 10
2170.11
 20
307.722
 10
2166.030000000001
 20
305.509
 10
2161.02
 20
304.7709999999999
 10
2154.56
 20
306.067
 10
2149.66
 20
309.956
 10
2145.95
 20
318.158
 10
2144.71
 20
330.283
  0
LWPOLYLINE
  5
E22
330
22
100
AcDbEntity
  8
LAYER_1
  6
Continuous
 62
     1
100
AcDbPolyline
 90
       17
 70
   129
 43
0.0
 10
2151.02
 20
330.283
 10
2151.74
 20
320.03
 10
2153.91
 20
313.895
 10
2157.12
 20
310.838
 10
2161.02
 20
309.819
 10
2164.91
 20
310.842
 10
2168.13
 20
313.9120000000001
 10
2170.29
 20
320.051
 10
2171.01
 20
330.283
 10
2170.29
 20
340.5569999999999
 10
2168.13
 20
346.6880000000001
 10
2164.89
 20
349.732
 10
2160.95
 20
350.747
 10
2157.15
 20
349.851
 10
2154.2
 20
347.166
 10
2151.82
 20
340.66
 10
2151.02
 20
330.283
  0
LWPOLYLINE
  5
E35
330
22
100
AcDbEntity
  8
LAYER_1
  6
Continuous
 62
     1
100
AcDbPolyline
 90
       21
 70
   129
 43
0.0
 10
2183.56
 20
330.283
 10
2184.02
 20
338.285
 10
2185.39
 20
344.556
 10
2187.65
 20
349.344
 10
2190.81
 20
352.895
 10
2194.87
 20
355.095
 10
2199.860000000001
 20
355.829
 10
2206.92
 20
354.209
 10
2211.94
 20
349.536
 10
2215.04
 20
342.101
 10
2216.17
 20
330.283
 10
2215.71
 20
322.332
 10
2214.36
 20
316.078
 10
2212.1
 20
311.286
 10
2208.95
 20
307.722
 10
2204.88
 20
305.509
 10
2199.860000000001
 20
304.7709999999999
 10
2193.41
 20
306.067
 10
2188.51
 20
309.956
 10
2184.8
 20
318.158
 10
2183.56
 20
330.283
  0
LWPOLYLINE
  5
E4C
330
22
100
AcDbEntity
  8
LAYER_1
  6
Continuous
 62
     1
100
AcDbPolyline
 90
       17
 70
   129
 43
0.0
 10
2189.87
 20
330.283
 10
2190.59
 20
320.03
 10
2192.75
 20
313.895
 10
2195.97
 20
310.838
 10
2199.860000000001
 20
309.819
 10
2203.76
 20
310.842
 10
2206.97
 20
313.9120000000001
 10
2209.14
 20
320.051
 10
2209.86
 20
330.283
 10
2209.14
 20
340.5569999999999
 10
2206.97
 20
346.6880000000001
 10
2203.74
 20
349.732
 10
2199.8
 20
350.747
 10
2195.99
 20
349.851
 10
2193.04
 20
347.166
 10
2190.66
 20
340.66
 10
2189.87
 20
330.283
  0
LWPOLYLINE
  5
E5F
330
22
100
AcDbEntity
  8
LAYER_1
  6
Continuous
 62
     1
100
AcDbPolyline
 90
       36
 70
   129
 43
0.0
 10
2224.11
 20
305.624
 10
2224.11
 20
341.845
 10
2229.6
 20
341.845
 10
2229.6
 20
336.7630000000001
 10
2234.14
 20
341.043
 10
2240.59
 20
342.664
 10
2247.19
 20
340.992
 10
2249.38
 20
338.989
 10
2250.82
 20
336.32
 10
2255.76
 20
341.078
 10
2262.01
 20
342.664
 10
2266.77
 20
341.917
 10
2270.29
 20
339.679
 10
2272.47
 20
335.889
 10
2273.19
 20
330.4880000000001
 10
2273.19
 20
305.624
 10
2267.09
 20
305.624
 10
2267.09
 20
328.441
 10
2266.49
 20
333.745
 10
2264.32
 20
336.354
 10
2260.64
 20
337.343
 10
2257.15
 20
336.708
 10
2254.3
 20
334.8019999999999
 10
2252.4
 20
331.4980000000001
 10
2251.77
 20
326.668
 10
2251.77
 20
305.624
 10
2245.63
 20
305.624
 10
2245.63
 20
329.157
 10
2244.13
 20
335.297
 10
2242.16
 20
336.831
 10
2239.22
 20
337.343
 10
2234.43
 20
335.979
 10
2231.24
 20
331.9880000000001
 10
2230.25
 20
324.417
 10
2230.25
 20
305.624
 10
2224.11
 20
305.624
  0
LWPOLYLINE
  5
E85
330
22
100
AcDbEntity
  8
LAYER_1
  6
Continuous
 62
     1
100
AcDbPolyline
 90
       36
 70
   129
 43
0.0
 10
2282.300000000001
 20
305.624
 10
2282.300000000001
 20
341.845
 10
2287.79
 20
341.845
 10
2287.79
 20
336.7630000000001
 10
2292.33
 20
341.043
 10
2298.77
 20
342.664
 10
2305.37
 20
340.992
 10
2307.57
 20
338.989
 10
2309.0
 20
336.32
 10
2313.95
 20
341.078
 10
2320.19
 20
342.664
 10
2324.96
 20
341.917
 10
2328.48
 20
339.679
 10
2330.65
 20
335.889
 10
2331.38
 20
330.4880000000001
 10
2331.38
 20
305.624
 10
2325.27
 20
305.624
 10
2325.27
 20
328.441
 10
2324.68
 20
333.745
 10
2322.51
 20
336.354
 10
2318.83
 20
337.343
 10
2315.33
 20
336.708
 10
2312.48
 20
334.8019999999999
 10
2310.59
 20
331.4980000000001
 10
2309.96
 20
326.668
 10
2309.96
 20
305.624
 10
2303.82
 20
305.624
 10
2303.82
 20
329.157
 10
2302.32
 20
335.297
 10
2300.34
 20
336.831
 10
2297.41
 20
337.343
 10
2292.62
 20
335.979
 10
2289.43
 20
331.9880000000001
 10
2288.44
 20
324.417
 10
2288.44
 20
305.624
 10
2282.300000000001
 20
305.624
  0
LINE
  5
EAB
330
22
100
AcDbEntity
  8
LAYER_1
  6
Continuous
 62
     7
100
AcDbLine
 10
500.0
 20
1480.0
 30
0.0
 11
500.0
 21
395.405
 31
0.0
  0
LWPOLYLINE
  5
EAC
330
22
100
AcDbEntity
  8
LAYER_1
  6
Continuous
 62
     7
100
AcDbPolyline
 90
        4
 70
   129
 43
0.0
 10
500.0
 20
415.4049999999999
 10
460.608
 20
408.459
 10
460.608
 20
422.351
 10
500.0
 20
415.4049999999999
  0
LINE
  5
EB2
330
22
100
AcDbEntity
  8
LAYER_1
  6
Continuous
 62
     7
100
AcDbLine
 10
500.0
 20
415.4049999999999
 30
0.0
 11
300.0
 21
415.4049999999999
 31
0.0
  0
LWPOLYLINE
  5
EB3
330
22
100
AcDbEntity
  8
LAYER_1
  6
Continuous
 62
     7
100
AcDbPolyline
 90
        4
 70
   129
 43
0.0
 10
300.0
 20
415.4049999999999
 10
339.392
 20
422.351
 10
339.392
 20
408.459
 10
300.0
 20
415.4049999999999
  0
LINE
  5
EB9
330
22
100
AcDbEntity
  8
LAYER_1
  6
Continuous
 62
     7
100
AcDbLine
 10
300.0
 20
395.405
 30
0.0
 11
300.0
 21
1480.0
 31
0.0
  0
LWPOLYLINE
  5
EBA
330
22
100
AcDbEntity
  8
LAYER_1
  6
Continuous
 62
     1
100
AcDbPolyline
 90
       32
 70
   129
 43
0.0
 10
318.707
 20
446.3059999999999
 10
318.707
 20
440.4049999999999
 10
285.658
 20
440.4049999999999
 10
286.374
 20
444.6679999999999
 10
290.416
 20
451.319
 10
298.448
 20
458.8909999999999
 10
309.465
 20
469.481
 10
311.613
 20
473.28
 10
312.329
 20
476.865
 10
311.677
 20
480.229
 10
309.72
 20
483.021
 10
306.715
 20
484.9009999999999
 10
302.916
 20
485.528
 10
298.926
 20
484.863
 10
295.822
 20
482.868
 10
293.818
 20
479.6959999999999
 10
293.128
 20
475.5009999999999
 10
286.818
 20
476.149
 10
288.361
 20
482.369
 10
291.695
 20
486.9089999999999
 10
296.649
 20
489.6849999999999
 10
303.053
 20
490.61
 10
309.499
 20
489.6119999999999
 10
314.444
 20
486.619
 10
317.59
 20
482.1509999999999
 10
318.639
 20
476.729
 10
317.411
 20
470.828
 10
313.336
 20
464.723
 10
303.871
 20
455.924
 10
296.777
 20
449.631
 10
294.185
 20
446.3059999999999
 10
318.707
 20
446.3059999999999
  0
LWPOLYLINE
  5
EDC
330
22
100
AcDbEntity
  8
LAYER_1
  6
Continuous
 62
     1
100
AcDbPolyline
 90
       21
 70
   129
 43
0.0
 10
325.29
 20
465.064
 10
325.746
 20
473.0659999999999
 10
327.115
 20
479.3379999999999
 10
329.383
 20
484.125
 10
332.538
 20
487.6769999999999
 10
336.6
 20
489.8769999999999
 10
341.593
 20
490.61
 10
348.653
 20
488.9899999999999
 10
353.666
 20
484.3169999999999
 10
356.77
 20
476.8819999999999
 10
357.8959999999999
 20
465.064
 10
357.444
 20
457.1130000000001
 10
356.088
 20
450.859
 10
353.833
 20
446.0669999999999
 10
350.682
 20
442.503
 10
346.611
 20
440.29
 10
341.593
 20
439.553
 10
335.138
 20
440.8489999999999
 10
330.235
 20
444.7369999999999
 10
326.526
 20
452.939
 10
325.29
 20
465.064
  0
LWPOLYLINE
  5
EF3
330
22
100
AcDbEntity
  8
LAYER_1
  6
Continuous
 62
     1
100
AcDbPolyline
 90
       17
 70
   129
 43
0.0
 10
331.6
 20
465.064
 10
332.32
 20
454.811
 10
334.482
 20
448.676
 10
337.7
 20
445.619
 10
341.593
 20
444.6
 10
345.485
 20
445.623
 10
348.704
 20
448.693
 10
350.865
 20
454.832
 10
351.586
 20
465.064
 10
350.865
 20
475.339
 10
348.704
 20
481.4689999999999
 10
345.468
 20
484.513
 10
341.525
 20
485.528
 10
337.722
 20
484.633
 10
334.771
 20
481.9469999999999
 10
332.393
 20
475.441
 10
331.6
 20
465.064
  0
LWPOLYLINE
  5
F06
330
22
100
AcDbEntity
  8
LAYER_1
  6
Continuous
 62
     1
100
AcDbPolyline
 90
       21
 70
   129
 43
0.0
 10
364.1369999999999
 20
465.064
 10
364.593
 20
473.0659999999999
 10
365.962
 20
479.3379999999999
 10
368.23
 20
484.125
 10
371.385
 20
487.6769999999999
 10
375.448
 20
489.8769999999999
 10
380.44
 20
490.61
 10
387.5
 20
488.9899999999999
 10
392.514
 20
484.3169999999999
 10
395.617
 20
476.8819999999999
 10
396.7430000000001
 20
465.064
 10
396.291
 20
457.1130000000001
 10
394.935
 20
450.859
 10
392.68
 20
446.0669999999999
 10
389.529
 20
442.503
 10
385.458
 20
440.29
 10
380.44
 20
439.553
 10
373.985
 20
440.8489999999999
 10
369.083
 20
444.7369999999999
 10
365.373
 20
452.939
 10
364.1369999999999
 20
465.064
  0
LWPOLYLINE
  5
F1D
330
22
100
AcDbEntity
  8
LAYER_1
  6
Continuous
 62
     1
100
AcDbPolyline
 90
       17
 70
   129
 43
0.0
 10
370.447
 20
465.064
 10
371.167
 20
454.811
 10
373.329
 20
448.676
 10
376.548
 20
445.619
 10
380.44
 20
444.6
 10
384.332
 20
445.623
 10
387.551
 20
448.693
 10
389.713
 20
454.832
 10
390.4330000000001
 20
465.064
 10
389.713
 20
475.339
 10
387.551
 20
481.4689999999999
 10
384.315
 20
484.513
 10
380.372
 20
485.528
 10
376.569
 20
484.633
 10
373.6190000000001
 20
481.9469999999999
 10
371.24
 20
475.441
 10
370.447
 20
465.064
  0
LWPOLYLINE
  5
F30
330
22
100
AcDbEntity
  8
LAYER_1
  6
Continuous
 62
     1
100
AcDbPolyline
 90
       36
 70
   129
 43
0.0
 10
404.6899999999999
 20
440.4049999999999
 10
404.6899999999999
 20
476.6259999999999
 10
410.1809999999999
 20
476.6259999999999
 10
410.1809999999999
 20
471.544
 10
414.717
 20
475.825
 10
421.163
 20
477.4449999999999
 10
427.763
 20
475.774
 10
429.958
 20
473.77
 10
431.395
 20
471.1009999999999
 10
436.3399999999999
 20
475.859
 10
442.5819999999999
 20
477.4449999999999
 10
447.348
 20
476.6989999999999
 10
450.87
 20
474.46
 10
453.044
 20
470.67
 10
453.769
 20
465.2689999999999
 10
453.769
 20
440.4049999999999
 10
447.6639999999999
 20
440.4049999999999
 10
447.6639999999999
 20
463.222
 10
447.0669999999999
 20
468.526
 10
444.901
 20
471.135
 10
441.218
 20
472.124
 10
437.722
 20
471.489
 10
434.874
 20
469.5829999999999
 10
432.981
 20
466.279
 10
432.35
 20
461.4489999999999
 10
432.35
 20
440.4049999999999
 10
426.2109999999999
 20
440.4049999999999
 10
426.2109999999999
 20
463.939
 10
424.7099999999999
 20
470.078
 10
422.7319999999999
 20
471.613
 10
419.799
 20
472.124
 10
415.0069999999999
 20
470.76
 10
411.818
 20
466.769
 10
410.829
 20
459.198
 10
410.829
 20
440.4049999999999
 10
404.6899999999999
 20
440.4049999999999
  0
LWPOLYLINE
  5
F56
330
22
100
AcDbEntity
  8
LAYER_1
  6
Continuous
 62
     1
100
AcDbPolyline
 90
       36
 70
   129
 43
0.0
 10
462.875
 20
440.4049999999999
 10
462.875
 20
476.6259999999999
 10
468.3659999999999
 20
476.6259999999999
 10
468.3659999999999
 20
471.544
 10
472.902
 20
475.825
 10
479.349
 20
477.4449999999999
 10
485.948
 20
475.774
 10
488.144
 20
473.77
 10
489.58
 20
471.1009999999999
 10
494.526
 20
475.859
 10
500.767
 20
477.4449999999999
 10
505.534
 20
476.6989999999999
 10
509.055
 20
474.46
 10
511.23
 20
470.67
 10
511.9539999999999
 20
465.2689999999999
 10
511.9539999999999
 20
440.4049999999999
 10
505.8489999999999
 20
440.4049999999999
 10
505.8489999999999
 20
463.222
 10
505.2519999999999
 20
468.526
 10
503.087
 20
471.135
 10
499.403
 20
472.124
 10
495.9069999999999
 20
471.489
 10
493.059
 20
469.5829999999999
 10
491.166
 20
466.279
 10
490.535
 20
461.4489999999999
 10
490.535
 20
440.4049999999999
 10
484.396
 20
440.4049999999999
 10
484.396
 20
463.939
 10
482.8959999999999
 20
470.078
 10
480.9169999999999
 20
471.613
 10
477.984
 20
472.124
 10
473.1919999999999
 20
470.76
 10
470.003
 20
466.769
 10
469.014
 20
459.198
 10
469.014
 20
440.4049999999999
 10
462.875
 20
440.4049999999999
  0
LINE
  5
F7C
330
22
100
AcDbEntity
  8
LAYER_1
  6
Continuous
 62
     7
100
AcDbLine
 10
300.0
 20
1580.0
 30
0.0
 11
300.0
 21
294.319
 31
0.0
  0
LWPOLYLINE
  5
F7D
330
22
100
AcDbEntity
  8
LAYER_1
  6
Continuous
 62
     7
100
AcDbPolyline
 90
        4
 70
   129
 43
0.0
 10
300.0
 20
314.319
 10
339.392
 20
321.265
 10
339.392
 20
307.373
 10
300.0
 20
314.319
  0
LINE
  5
F83
330
22
100
AcDbEntity
  8
LAYER_1
  6
Continuous
 62
     7
100
AcDbLine
 10
300.0
 20
314.319
 30
0.0
 11
887.298
 21
314.319
 31
0.0
  0
LWPOLYLINE
  5
F84
330
22
100
AcDbEntity
  8
LAYER_1
  6
Continuous
 62
     7
100
AcDbPolyline
 90
        4
 70
   129
 43
0.0
 10
887.298
 20
314.319
 10
847.906
 20
307.373
 10
847.906
 20
321.265
 10
887.298
 20
314.319
  0
LINE
  5
F8A
330
22
100
AcDbEntity
  8
LAYER_1
  6
Continuous
 62
     7
100
AcDbLine
 10
887.298
 20
294.319
 30
0.0
 11
887.298
 21
1580.0
 31
0.0
  0
LWPOLYLINE
  5
F8B
330
22
100
AcDbEntity
  8
LAYER_1
  6
Continuous
 62
     1
100
AcDbPolyline
 90
       35
 70
   129
 43
0.0
 10
511.9469999999999
 20
377.075
 10
505.8419999999999
 20
376.598
 10
503.523
 20
381.85
 10
500.743
 20
383.82
 10
497.384
 20
384.476
 10
492.234
 20
382.839
 10
489.6419999999999
 20
380.2380000000001
 10
487.663
 20
376.666
 10
486.393
 20
371.746
 10
485.924
 20
365.104
 10
491.347
 20
370.117
 10
498.0659999999999
 20
371.754
 10
503.749
 20
370.625
 10
508.5199999999999
 20
367.235
 10
511.755
 20
362.055
 10
512.834
 20
355.5540000000001
 10
512.3269999999999
 20
351.014
 10
510.805
 20
346.806
 10
508.3959999999999
 20
343.237
 10
505.228
 20
340.615
 10
501.4419999999999
 20
339.004
 10
497.179
 20
338.467
 10
490.213
 20
339.878
 10
484.6619999999999
 20
344.111
 10
481.0299999999999
 20
351.585
 10
479.8189999999999
 20
362.716
 10
481.158
 20
375.233
 10
482.831
 20
380.008
 10
485.174
 20
383.7940000000001
 10
490.6559999999999
 20
388.091
 10
497.759
 20
389.524
 10
503.1259999999999
 20
388.6969999999999
 10
507.428
 20
386.216
 10
510.4419999999999
 20
382.276
 10
511.9469999999999
 20
377.075
  0
LWPOLYLINE
  5
FB0
330
22
100
AcDbEntity
  8
LAYER_1
  6
Continuous
 62
     1
100
AcDbPolyline
 90
       16
 70
   129
 43
0.0
 10
486.879
 20
355.52
 10
488.226
 20
349.449
 10
491.995
 20
345.032
 10
497.0769999999999
 20
343.514
 10
500.692
 20
344.299
 10
503.7619999999999
 20
346.652
 10
505.859
 20
350.353
 10
506.558
 20
355.179
 10
505.868
 20
359.8130000000001
 10
503.7959999999999
 20
363.347
 10
500.675
 20
365.585
 10
496.838
 20
366.332
 10
492.993
 20
365.585
 10
489.778
 20
363.347
 10
487.604
 20
359.898
 10
486.879
 20
355.52
  0
LWPOLYLINE
  5
FC2
330
22
100
AcDbEntity
  8
LAYER_1
  6
Continuous
 62
     1
100
AcDbPolyline
 90
       21
 70
   129
 43
0.0
 10
518.9389999999999
 20
363.978
 10
519.395
 20
371.98
 10
520.764
 20
378.2519999999999
 10
523.0319999999998
 20
383.039
 10
526.187
 20
386.591
 10
530.25
 20
388.791
 10
535.2419999999999
 20
389.524
 10
542.302
 20
387.904
 10
547.316
 20
383.231
 10
550.419
 20
375.796
 10
551.5449999999999
 20
363.978
 10
551.093
 20
356.027
 10
549.737
 20
349.773
 10
547.482
 20
344.981
 10
544.331
 20
341.417
 10
540.2599999999999
 20
339.204
 10
535.2419999999999
 20
338.467
 10
528.7869999999998
 20
339.763
 10
523.885
 20
343.651
 10
520.1749999999999
 20
351.853
 10
518.9389999999999
 20
363.978
  0
LWPOLYLINE
  5
FD9
330
22
100
AcDbEntity
  8
LAYER_1
  6
Continuous
 62
     1
100
AcDbPolyline
 90
       17
 70
   129
 43
0.0
 10
525.249
 20
363.978
 10
525.969
 20
353.725
 10
528.1309999999999
 20
347.59
 10
531.35
 20
344.533
 10
535.2419999999999
 20
343.514
 10
539.134
 20
344.538
 10
542.353
 20
347.607
 10
544.5149999999999
 20
353.746
 10
545.235
 20
363.978
 10
544.5149999999999
 20
374.253
 10
542.353
 20
380.3830000000001
 10
539.1169999999999
 20
383.427
 10
535.1739999999999
 20
384.4419999999999
 10
531.3709999999999
 20
383.547
 10
528.4209999999999
 20
380.861
 10
526.0419999999998
 20
374.355
 10
525.249
 20
363.978
  0
LWPOLYLINE
  5
FEC
330
22
100
AcDbEntity
  8
LAYER_1
  6
Continuous
 62
     1
100
AcDbPolyline
 90
       21
 70
   129
 43
0.0
 10
557.7859999999999
 20
363.978
 10
558.2419999999999
 20
371.98
 10
559.611
 20
378.2519999999999
 10
561.879
 20
383.039
 10
565.0339999999999
 20
386.591
 10
569.097
 20
388.791
 10
574.089
 20
389.524
 10
581.149
 20
387.904
 10
586.1629999999999
 20
383.231
 10
589.2659999999999
 20
375.796
 10
590.3919999999999
 20
363.978
 10
589.94
 20
356.027
 10
588.584
 20
349.773
 10
586.3290000000001
 20
344.981
 10
583.178
 20
341.417
 10
579.1069999999999
 20
339.204
 10
574.089
 20
338.467
 10
567.635
 20
339.763
 10
562.732
 20
343.651
 10
559.023
 20
351.853
 10
557.7859999999999
 20
363.978
  0
LWPOLYLINE
  5
1003
330
22
100
AcDbEntity
  8
LAYER_1
  6
Continuous
 62
     1
100
AcDbPolyline
 90
       17
 70
   129
 43
0.0
 10
564.0959999999999
 20
363.978
 10
564.816
 20
353.725
 10
566.9780000000001
 20
347.59
 10
570.197
 20
344.533
 10
574.089
 20
343.514
 10
577.9819999999999
 20
344.538
 10
581.2
 20
347.607
 10
583.3619999999999
 20
353.746
 10
584.0819999999999
 20
363.978
 10
583.3619999999999
 20
374.253
 10
581.2
 20
380.3830000000001
 10
577.964
 20
383.427
 10
574.0209999999999
 20
384.4419999999999
 10
570.2180000000001
 20
383.547
 10
567.268
 20
380.861
 10
564.889
 20
374.355
 10
564.0959999999999
 20
363.978
  0
LWPOLYLINE
  5
1016
330
22
100
AcDbEntity
  8
LAYER_1
  6
Continuous
 62
     1
100
AcDbPolyline
 90
       36
 70
   129
 43
0.0
 10
598.339
 20
339.319
 10
598.339
 20
375.54
 10
603.83
 20
375.54
 10
603.83
 20
370.458
 10
608.366
 20
374.739
 10
614.812
 20
376.3590000000001
 10
621.4119999999999
 20
374.688
 10
623.6069999999999
 20
372.684
 10
625.044
 20
370.015
 10
629.99
 20
374.773
 10
636.2309999999999
 20
376.3590000000001
 10
640.9969999999999
 20
375.6130000000001
 10
644.519
 20
373.375
 10
646.6929999999999
 20
369.584
 10
647.418
 20
364.1830000000001
 10
647.418
 20
339.319
 10
641.3129999999999
 20
339.319
 10
641.3129999999999
 20
362.136
 10
640.716
 20
367.44
 10
638.5499999999999
 20
370.049
 10
634.8669999999999
 20
371.038
 10
631.371
 20
370.403
 10
628.523
 20
368.497
 10
626.63
 20
365.1930000000001
 10
625.999
 20
360.3630000000001
 10
625.999
 20
339.319
 10
619.8599999999999
 20
339.319
 10
619.8599999999999
 20
362.853
 10
618.359
 20
368.992
 10
616.3809999999999
 20
370.527
 10
613.4479999999999
 20
371.038
 10
608.6559999999999
 20
369.6740000000001
 10
605.4669999999999
 20
365.684
 10
604.4780000000001
 20
358.112
 10
604.4780000000001
 20
339.319
 10
598.339
 20
339.319
  0
LWPOLYLINE
  5
103C
330
22
100
AcDbEntity
  8
LAYER_1
  6
Continuous
 62
     1
100
AcDbPolyline
 90
       36
 70
   129
 43
0.0
 10
656.5239999999999
 20
339.319
 10
656.5239999999999
 20
375.54
 10
662.0149999999999
 20
375.54
 10
662.0149999999999
 20
370.458
 10
666.552
 20
374.739
 10
672.998
 20
376.3590000000001
 10
679.5969999999999
 20
374.688
 10
681.793
 20
372.684
 10
683.23
 20
370.015
 10
688.1749999999999
 20
374.773
 10
694.4169999999999
 20
376.3590000000001
 10
699.183
 20
375.6130000000001
 10
702.7039999999999
 20
373.375
 10
704.8789999999999
 20
369.584
 10
705.603
 20
364.1830000000001
 10
705.603
 20
339.319
 10
699.498
 20
339.319
 10
699.498
 20
362.136
 10
698.9019999999999
 20
367.44
 10
696.7360000000001
 20
370.049
 10
693.052
 20
371.038
 10
689.556
 20
370.403
 10
686.7089999999999
 20
368.497
 10
684.816
 20
365.1930000000001
 10
684.1849999999999
 20
360.3630000000001
 10
684.1849999999999
 20
339.319
 10
678.045
 20
339.319
 10
678.045
 20
362.853
 10
676.5449999999999
 20
368.992
 10
674.567
 20
370.527
 10
671.633
 20
371.038
 10
666.842
 20
369.6740000000001
 10
663.653
 20
365.684
 10
662.663
 20
358.112
 10
662.663
 20
339.319
 10
656.5239999999999
 20
339.319
  0
LINE
  5
1062
330
22
100
AcDbEntity
  8
LAYER_1
  6
Continuous
 62
     7
100
AcDbLine
 10
1029.18
 20
1080.0
 30
0.0
 11
1029.18
 21
182.002
 31
0.0
  0
LWPOLYLINE
  5
1063
330
22
100
AcDbEntity
  8
LAYER_1
  6
Continuous
 62
     7
100
AcDbPolyline
 90
        4
 70
   129
 43
0.0
 10
1029.18
 20
202.002
 10
989.7869999999999
 20
195.056
 10
989.7869999999999
 20
208.948
 10
1029.18
 20
202.002
  0
LINE
  5
1069
330
22
100
AcDbEntity
  8
LAYER_1
  6
Continuous
 62
     7
100
AcDbLine
 10
1029.18
 20
202.002
 30
0.0
 11
300.0
 21
202.002
 31
0.0
  0
LWPOLYLINE
  5
106A
330
22
100
AcDbEntity
  8
LAYER_1
  6
Continuous
 62
     7
100
AcDbPolyline
 90
        4
 70
   129
 43
0.0
 10
300.0
 20
202.002
 10
339.392
 20
208.948
 10
339.392
 20
195.056
 10
300.0
 20
202.002
  0
LINE
  5
1070
330
22
100
AcDbEntity
  8
LAYER_1
  6
Continuous
 62
     7
100
AcDbLine
 10
300.0
 20
182.002
 30
0.0
 11
300.0
 21
1080.0
 31
0.0
  0
LWPOLYLINE
  5
1071
330
22
100
AcDbEntity
  8
LAYER_1
  6
Continuous
 62
     1
100
AcDbPolyline
 90
       14
 70
   129
 43
0.0
 10
551.442
 20
270.453
 10
551.442
 20
276.354
 10
583.809
 20
276.354
 10
583.809
 20
271.579
 10
574.344
 20
258.073
 10
570.188
 20
249.529
 10
567.0969999999999
 20
240.747
 10
564.743
 20
227.002
 10
558.434
 20
227.002
 10
560.753
 20
241.258
 10
563.452
 20
249.465
 10
567.114
 20
257.373
 10
575.9299999999999
 20
270.453
 10
551.442
 20
270.453
  0
LWPOLYLINE
  5
1081
330
22
100
AcDbEntity
  8
LAYER_1
  6
Continuous
 62
     1
100
AcDbPolyline
 90
       21
 70
   129
 43
0.0
 10
589.88
 20
251.661
 10
590.336
 20
259.663
 10
591.704
 20
265.934
 10
593.972
 20
270.722
 10
597.1269999999999
 20
274.273
 10
601.19
 20
276.473
 10
606.183
 20
277.206
 10
613.243
 20
275.586
 10
618.2559999999999
 20
270.914
 10
621.36
 20
263.478
 10
622.4849999999999
 20
251.661
 10
622.034
 20
243.709
 10
620.678
 20
237.455
 10
618.423
 20
232.663
 10
615.2719999999999
 20
229.099
 10
611.2
 20
226.887
 10
606.183
 20
226.149
 10
599.728
 20
227.445
 10
594.825
 20
231.333
 10
591.1159999999999
 20
239.536
 10
589.88
 20
251.661
  0
LWPOLYLINE
  5
1098
330
22
100
AcDbEntity
  8
LAYER_1
  6
Continuous
 62
     1
100
AcDbPolyline
 90
       17
 70
   129
 43
0.0
 10
596.1889999999999
 20
251.661
 10
596.91
 20
241.407
 10
599.0709999999999
 20
235.272
 10
602.2899999999999
 20
232.216
 10
606.183
 20
231.197
 10
610.075
 20
232.22
 10
613.2939999999999
 20
235.289
 10
615.455
 20
241.429
 10
616.1759999999999
 20
251.661
 10
615.455
 20
261.935
 10
613.2939999999999
 20
268.066
 10
610.0579999999999
 20
271.11
 10
606.114
 20
272.124
 10
602.311
 20
271.229
 10
599.361
 20
268.543
 10
596.9819999999999
 20
262.037
 10
596.1889999999999
 20
251.661
  0
LWPOLYLINE
  5
10AB
330
22
100
AcDbEntity
  8
LAYER_1
  6
Continuous
 62
     1
100
AcDbPolyline
 90
       21
 70
   129
 43
0.0
 10
628.7269999999999
 20
251.661
 10
629.183
 20
259.663
 10
630.552
 20
265.934
 10
632.82
 20
270.722
 10
635.975
 20
274.273
 10
640.0369999999999
 20
276.473
 10
645.0299999999999
 20
277.206
 10
652.09
 20
275.586
 10
657.103
 20
270.914
 10
660.207
 20
263.478
 10
661.3330000000001
 20
251.661
 10
660.881
 20
243.709
 10
659.525
 20
237.455
 10
657.27
 20
232.663
 10
654.119
 20
229.099
 10
650.048
 20
226.887
 10
645.0299999999999
 20
226.149
 10
638.575
 20
227.445
 10
633.672
 20
231.333
 10
629.963
 20
239.536
 10
628.7269999999999
 20
251.661
  0
LWPOLYLINE
  5
10C2
330
22
100
AcDbEntity
  8
LAYER_1
  6
Continuous
 62
     1
100
AcDbPolyline
 90
       17
 70
   129
 43
0.0
 10
635.0369999999998
 20
251.661
 10
635.7569999999999
 20
241.407
 10
637.919
 20
235.272
 10
641.1369999999999
 20
232.216
 10
645.0299999999999
 20
231.197
 10
648.922
 20
232.22
 10
652.1409999999999
 20
235.289
 10
654.302
 20
241.429
 10
655.0229999999999
 20
251.661
 10
654.302
 20
261.935
 10
652.1409999999999
 20
268.066
 10
648.9049999999999
 20
271.11
 10
644.962
 20
272.124
 10
641.159
 20
271.229
 10
638.2080000000001
 20
268.543
 10
635.83
 20
262.037
 10
635.0369999999998
 20
251.661
  0
LWPOLYLINE
  5
10D5
330
22
100
AcDbEntity
  8
LAYER_1
  6
Continuous
 62
     1
100
AcDbPolyline
 90
       36
 70
   129
 43
0.0
 10
669.279
 20
227.002
 10
669.279
 20
263.223
 10
674.771
 20
263.223
 10
674.771
 20
258.1409999999999
 10
679.307
 20
262.421
 10
685.753
 20
264.041
 10
692.3519999999999
 20
262.37
 10
694.5479999999999
 20
260.366
 10
695.985
 20
257.697
 10
700.9299999999999
 20
262.455
 10
707.172
 20
264.041
 10
711.9379999999999
 20
263.295
 10
715.46
 20
261.057
 10
717.6339999999998
 20
257.267
 10
718.3589999999999
 20
251.865
 10
718.3589999999999
 20
227.002
 10
712.2539999999998
 20
227.002
 10
712.2539999999998
 20
249.819
 10
711.6569999999999
 20
255.122
 10
709.4910000000001
 20
257.731
 10
705.807
 20
258.721
 10
702.311
 20
258.085
 10
699.4639999999999
 20
256.18
 10
697.571
 20
252.876
 10
696.94
 20
248.045
 10
696.94
 20
227.002
 10
690.801
 20
227.002
 10
690.801
 20
250.535
 10
689.2999999999999
 20
256.674
 10
687.3219999999999
 20
258.209
 10
684.3889999999999
 20
258.721
 10
679.5969999999999
 20
257.356
 10
676.4079999999999
 20
253.366
 10
675.419
 20
245.794
 10
675.419
 20
227.002
 10
669.279
 20
227.002
  0
LWPOLYLINE
  5
10FB
330
22
100
AcDbEntity
  8
LAYER_1
  6
Continuous
 62
     1
100
AcDbPolyline
 90
       36
 70
   129
 43
0.0
 10
727.465
 20
227.002
 10
727.465
 20
263.223
 10
732.956
 20
263.223
 10
732.956
 20
258.1409999999999
 10
737.4919999999999
 20
262.421
 10
743.9379999999999
 20
264.041
 10
750.538
 20
262.37
 10
752.7339999999999
 20
260.366
 10
754.1699999999999
 20
257.697
 10
759.1160000000001
 20
262.455
 10
765.357
 20
264.041
 10
770.1239999999999
 20
263.295
 10
773.6449999999999
 20
261.057
 10
775.8189999999999
 20
257.267
 10
776.5439999999999
 20
251.865
 10
776.5439999999999
 20
227.002
 10
770.439
 20
227.002
 10
770.439
 20
249.819
 10
769.8419999999999
 20
255.122
 10
767.676
 20
257.731
 10
763.993
 20
258.721
 10
760.4969999999999
 20
258.085
 10
757.6489999999998
 20
256.18
 10
755.7560000000001
 20
252.876
 10
755.125
 20
248.045
 10
755.125
 20
227.002
 10
748.9860000000001
 20
227.002
 10
748.9860000000001
 20
250.535
 10
747.4849999999999
 20
256.674
 10
745.5069999999999
 20
258.209
 10
742.5739999999999
 20
258.721
 10
737.7819999999999
 20
257.356
 10
734.593
 20
253.366
 10
733.6039999999999
 20
245.794
 10
733.6039999999999
 20
227.002
 10
727.465
 20
227.002
  0
LINE
  5
1121
330
22
100
AcDbEntity
  8
LAYER_1
  6
Continuous
 62
     7
100
AcDbLine
 10
1500.0
 20
480.0
 30
0.0
 11
1500.0
 21
129.587
 31
0.0
  0
LWPOLYLINE
  5
1122
330
22
100
AcDbEntity
  8
LAYER_1
  6
Continuous
 62
     7
100
AcDbPolyline
 90
        4
 70
   129
 43
0.0
 10
1500.0
 20
149.587
 10
1539.39
 20
156.533
 10
1539.39
 20
142.641
 10
1500.0
 20
149.587
  0
LINE
  5
1128
330
22
100
AcDbEntity
  8
LAYER_1
  6
Continuous
 62
     7
100
AcDbLine
 10
1500.0
 20
149.587
 30
0.0
 11
2700.0
 21
149.587
 31
0.0
  0
LWPOLYLINE
  5
1129
330
22
100
AcDbEntity
  8
LAYER_1
  6
Continuous
 62
     7
100
AcDbPolyline
 90
        4
 70
   129
 43
0.0
 10
2700.0
 20
149.587
 10
2660.61
 20
142.641
 10
2660.61
 20
156.533
 10
2700.0
 20
149.587
  0
LINE
  5
112F
330
22
100
AcDbEntity
  8
LAYER_1
  6
Continuous
 62
     7
100
AcDbLine
 10
2700.0
 20
129.587
 30
0.0
 11
2700.0
 21
480.0
 31
0.0
  0
LWPOLYLINE
  5
1130
330
22
100
AcDbEntity
  8
LAYER_1
  6
Continuous
 62
     1
100
AcDbPolyline
 90
       10
 70
   129
 43
0.0
 10
1990.14
 20
174.587
 10
1984.0
 20
174.587
 10
1984.0
 20
213.707
 10
1978.19
 20
209.478
 10
1971.73
 20
206.306
 10
1971.73
 20
212.24
 10
1980.73
 20
218.106
 10
1986.19
 20
224.791
 10
1990.14
 20
224.791
 10
1990.14
 20
174.587
  0
LWPOLYLINE
  5
113C
330
22
100
AcDbEntity
  8
LAYER_1
  6
Continuous
 62
     1
100
AcDbPolyline
 90
       32
 70
   129
 43
0.0
 10
2038.13
 20
180.487
 10
2038.13
 20
174.587
 10
2005.08
 20
174.587
 10
2005.8
 20
178.85
 10
2009.84
 20
185.501
 10
2017.87
 20
193.072
 10
2028.89
 20
203.662
 10
2031.04
 20
207.461
 10
2031.75
 20
211.046
 10
2031.1
 20
214.41
 10
2029.14
 20
217.203
 10
2026.14
 20
219.083
 10
2022.34
 20
219.709
 10
2018.35
 20
219.044
 10
2015.25
 20
217.049
 10
2013.24
 20
213.877
 10
2012.55
 20
209.682
 10
2006.24
 20
210.33
 10
2007.78
 20
216.55
 10
2011.12
 20
221.091
 10
2016.07
 20
223.866
 10
2022.48
 20
224.791
 10
2028.92
 20
223.794
 10
2033.87
 20
220.801
 10
2037.01
 20
216.333
 10
2038.06
 20
210.91
 10
2036.83
 20
205.01
 10
2032.76
 20
198.905
 10
2023.29
 20
190.105
 10
2016.2
 20
183.812
 10
2013.61
 20
180.487
 10
2038.13
 20
180.487
  0
LWPOLYLINE
  5
115E
330
22
100
AcDbEntity
  8
LAYER_1
  6
Continuous
 62
     1
100
AcDbPolyline
 90
       21
 70
   129
 43
0.0
 10
2044.71
 20
199.246
 10
2045.17
 20
207.248
 10
2046.54
 20
213.519
 10
2048.81
 20
218.307
 10
2051.96
 20
221.858
 10
2056.02
 20
224.058
 10
2061.02
 20
224.791
 10
2068.08
 20
223.171
 10
2073.09
 20
218.499
 10
2076.19
 20
211.064
 10
2077.32
 20
199.246
 10
2076.87
 20
191.295
 10
2075.51
 20
185.04
 10
2073.26
 20
180.248
 10
2070.11
 20
176.684
 10
2066.03
 20
174.472
 10
2061.02
 20
173.734
 10
2054.56
 20
175.03
 10
2049.66
 20
178.918
 10
2045.95
 20
187.1209999999999
 10
2044.71
 20
199.246
  0
LWPOLYLINE
  5
1175
330
22
100
AcDbEntity
  8
LAYER_1
  6
Continuous
 62
     1
100
AcDbPolyline
 90
       17
 70
   129
 43
0.0
 10
2051.02
 20
199.246
 10
2051.74
 20
188.992
 10
2053.91
 20
182.858
 10
2057.12
 20
179.801
 10
2061.02
 20
178.782
 10
2064.91
 20
179.805
 10
2068.13
 20
182.875
 10
2070.29
 20
189.014
 10
2071.010000000001
 20
199.246
 10
2070.29
 20
209.52
 10
2068.13
 20
215.651
 10
2064.89
 20
218.695
 10
2060.95
 20
219.709
 10
2057.15
 20
218.814
 10
2054.2
 20
216.128
 10
2051.820000000001
 20
209.623
 10
2051.02
 20
199.246
  0
LWPOLYLINE
  5
1188
330
22
100
AcDbEntity
  8
LAYER_1
  6
Continuous
 62
     1
100
AcDbPolyline
 90
       21
 70
   129
 43
0.0
 10
2083.56
 20
199.246
 10
2084.02
 20
207.248
 10
2085.39
 20
213.519
 10
2087.65
 20
218.307
 10
2090.81
 20
221.858
 10
2094.87
 20
224.058
 10
2099.86
 20
224.791
 10
2106.92
 20
223.171
 10
2111.94
 20
218.499
 10
2115.04
 20
211.064
 10
2116.17
 20
199.246
 10
2115.71
 20
191.295
 10
2114.36
 20
185.04
 10
2112.1
 20
180.248
 10
2108.95
 20
176.684
 10
2104.88
 20
174.472
 10
2099.86
 20
173.734
 10
2093.41
 20
175.03
 10
2088.51
 20
178.918
 10
2084.8
 20
187.1209999999999
 10
2083.56
 20
199.246
  0
LWPOLYLINE
  5
119F
330
22
100
AcDbEntity
  8
LAYER_1
  6
Continuous
 62
     1
100
AcDbPolyline
 90
       17
 70
   129
 43
0.0
 10
2089.87
 20
199.246
 10
2090.59
 20
188.992
 10
2092.75
 20
182.858
 10
2095.97
 20
179.801
 10
2099.86
 20
178.782
 10
2103.76
 20
179.805
 10
2106.97
 20
182.875
 10
2109.14
 20
189.014
 10
2109.86
 20
199.246
 10
2109.14
 20
209.52
 10
2106.97
 20
215.651
 10
2103.74
 20
218.695
 10
2099.8
 20
219.709
 10
2095.99
 20
218.814
 10
2093.04
 20
216.128
 10
2090.66
 20
209.623
 10
2089.87
 20
199.246
  0
LWPOLYLINE
  5
11B2
330
22
100
AcDbEntity
  8
LAYER_1
  6
Continuous
 62
     1
100
AcDbPolyline
 90
       36
 70
   129
 43
0.0
 10
2124.11
 20
174.587
 10
2124.11
 20
210.808
 10
2129.6
 20
210.808
 10
2129.6
 20
205.726
 10
2134.14
 20
210.006
 10
2140.59
 20
211.626
 10
2147.19
 20
209.955
 10
2149.38
 20
207.951
 10
2150.82
 20
205.282
 10
2155.76
 20
210.04
 10
2162.01
 20
211.626
 10
2166.77
 20
210.88
 10
2170.29
 20
208.642
 10
2172.47
 20
204.852
 10
2173.19
 20
199.45
 10
2173.19
 20
174.587
 10
2167.09
 20
174.587
 10
2167.09
 20
197.404
 10
2166.49
 20
202.707
 10
2164.32
 20
205.317
 10
2160.64
 20
206.306
 10
2157.15
 20
205.67
 10
2154.3
 20
203.765
 10
2152.4
 20
200.461
 10
2151.77
 20
195.63
 10
2151.77
 20
174.587
 10
2145.63
 20
174.587
 10
2145.63
 20
198.12
 10
2144.13
 20
204.259
 10
2142.16
 20
205.794
 10
2139.22
 20
206.306
 10
2134.43
 20
204.941
 10
2131.24
 20
200.951
 10
2130.25
 20
193.379
 10
2130.25
 20
174.587
 10
2124.11
 20
174.587
  0
LWPOLYLINE
  5
11D8
330
22
100
AcDbEntity
  8
LAYER_1
  6
Continuous
 62
     1
100
AcDbPolyline
 90
       36
 70
   129
 43
0.0
 10
2182.300000000001
 20
174.587
 10
2182.300000000001
 20
210.808
 10
2187.79
 20
210.808
 10
2187.79
 20
205.726
 10
2192.33
 20
210.006
 10
2198.77
 20
211.626
 10
2205.37
 20
209.955
 10
2207.57
 20
207.951
 10
2209.0
 20
205.282
 10
2213.95
 20
210.04
 10
2220.19
 20
211.626
 10
2224.96
 20
210.88
 10
2228.48
 20
208.642
 10
2230.65
 20
204.852
 10
2231.38
 20
199.45
 10
2231.38
 20
174.587
 10
2225.27
 20
174.587
 10
2225.27
 20
197.404
 10
2224.68
 20
202.707
 10
2222.51
 20
205.317
 10
2218.83
 20
206.306
 10
2215.33
 20
205.67
 10
2212.48
 20
203.765
 10
2210.59
 20
200.461
 10
2209.96
 20
195.63
 10
2209.96
 20
174.587
 10
2203.82
 20
174.587
 10
2203.82
 20
198.12
 10
2202.32
 20
204.259
 10
2200.34
 20
205.794
 10
2197.41
 20
206.306
 10
2192.62
 20
204.941
 10
2189.43
 20
200.951
 10
2188.44
 20
193.379
 10
2188.44
 20
174.587
 10
2182.300000000001
 20
174.587
  0
LINE
  5
11FE
330
22
100
AcDbEntity
  8
LAYER_1
  6
Continuous
 62
     7
100
AcDbLine
 10
1100.0
 20
480.0
 30
0.0
 11
1100.0
 21
73.42789999999999
 31
0.0
  0
LWPOLYLINE
  5
11FF
330
22
100
AcDbEntity
  8
LAYER_1
  6
Continuous
 62
     7
100
AcDbPolyline
 90
        4
 70
   129
 43
0.0
 10
1100.0
 20
93.42789999999999
 10
1060.61
 20
86.48189999999999
 10
1060.61
 20
100.374
 10
1100.0
 20
93.42789999999999
  0
LINE
  5
1205
330
22
100
AcDbEntity
  8
LAYER_1
  6
Continuous
 62
     7
100
AcDbLine
 10
1100.0
 20
93.42789999999999
 30
0.0
 11
300.0
 21
93.42789999999999
 31
0.0
  0
LWPOLYLINE
  5
1206
330
22
100
AcDbEntity
  8
LAYER_1
  6
Continuous
 62
     7
100
AcDbPolyline
 90
        4
 70
   129
 43
0.0
 10
300.0
 20
93.42789999999999
 10
339.392
 20
100.374
 10
339.392
 20
86.48189999999999
 10
300.0
 20
93.42789999999999
  0
LINE
  5
120C
330
22
100
AcDbEntity
  8
LAYER_1
  6
Continuous
 62
     7
100
AcDbLine
 10
300.0
 20
73.42789999999999
 30
0.0
 11
300.0
 21
480.0
 31
0.0
  0
LWPOLYLINE
  5
120D
330
22
100
AcDbEntity
  8
LAYER_1
  6
Continuous
 62
     1
100
AcDbPolyline
 90
       33
 70
   129
 43
0.0
 10
595.8899999999999
 20
145.542
 10
592.565
 20
147.239
 10
590.229
 20
149.533
 10
588.8469999999999
 20
152.381
 10
588.3869999999999
 20
155.74
 10
589.3669999999999
 20
160.762
 10
592.309
 20
164.915
 10
596.879
 20
167.703
 10
602.7459999999999
 20
168.633
 10
608.6549999999999
 20
167.682
 10
613.2839999999999
 20
164.83
 10
616.2769999999999
 20
160.613
 10
617.2749999999999
 20
155.57
 10
616.819
 20
152.317
 10
615.45
 20
149.516
 10
613.1519999999999
 20
147.235
 10
609.908
 20
145.542
 10
613.9619999999999
 20
143.581
 10
616.9169999999999
 20
140.699
 10
618.72
 20
137.033
 10
619.321
 20
132.718
 10
618.1869999999999
 20
126.818
 10
614.785
 20
121.941
 10
609.533
 20
118.667
 10
602.848
 20
117.575
 10
596.163
 20
118.671
 10
590.9109999999999
 20
121.958
 10
587.509
 20
126.882
 10
586.3739999999999
 20
132.889
 10
586.993
 20
137.37
 10
588.8469999999999
 20
141.057
 10
591.844
 20
143.824
 10
595.8899999999999
 20
145.542
  0
LWPOLYLINE
  5
1230
330
22
100
AcDbEntity
  8
LAYER_1
  6
Continuous
 62
     1
100
AcDbPolyline
 90
       17
 70
   129
 43
0.0
 10
594.6619999999999
 20
155.945
 10
595.234
 20
152.722
 10
596.947
 20
150.147
 10
599.574
 20
148.459
 10
602.8819999999999
 20
147.896
 10
606.109
 20
148.454
 10
608.6969999999999
 20
150.13
 10
610.3979999999999
 20
152.615
 10
610.965
 20
155.604
 10
610.381
 20
158.712
 10
608.6289999999999
 20
161.283
 10
606.0069999999999
 20
163.009
 10
602.8139999999999
 20
163.585
 10
599.599
 20
163.022
 10
596.9819999999999
 20
161.334
 10
595.242
 20
158.861
 10
594.6619999999999
 20
155.945
  0
LWPOLYLINE
  5
1243
330
22
100
AcDbEntity
  8
LAYER_1
  6
Continuous
 62
     1
100
AcDbPolyline
 90
       16
 70
   129
 43
0.0
 10
592.6839999999999
 20
132.855
 10
593.9289999999999
 20
127.773
 10
597.63
 20
123.97
 10
602.9159999999999
 20
122.623
 10
606.932
 20
123.331
 10
610.181
 20
125.454
 10
612.329
 20
128.668
 10
613.0459999999999
 20
132.65
 10
612.3079999999999
 20
136.7
 10
610.095
 20
139.983
 10
606.774
 20
142.157
 10
602.711
 20
142.882
 10
598.751
 20
142.166
 10
595.5319999999999
 20
140.017
 10
593.3959999999999
 20
136.794
 10
592.6839999999999
 20
132.855
  0
LWPOLYLINE
  5
1255
330
22
100
AcDbEntity
  8
LAYER_1
  6
Continuous
 62
     1
100
AcDbPolyline
 90
       21
 70
   129
 43
0.0
 10
625.2899999999999
 20
143.087
 10
625.746
 20
151.089
 10
627.115
 20
157.36
 10
629.383
 20
162.148
 10
632.538
 20
165.699
 10
636.6
 20
167.899
 10
641.5930000000001
 20
168.633
 10
648.653
 20
167.012
 10
653.6659999999999
 20
162.34
 10
656.77
 20
154.905
 10
657.8960000000001
 20
143.087
 10
657.444
 20
135.136
 10
656.088
 20
128.881
 10
653.8330000000001
 20
124.09
 10
650.682
 20
120.525
 10
646.611
 20
118.313
 10
641.5930000000001
 20
117.575
 10
635.138
 20
118.871
 10
630.235
 20
122.759
 10
626.5259999999999
 20
130.962
 10
625.2899999999999
 20
143.087
  0
LWPOLYLINE
  5
126C
330
22
100
AcDbEntity
  8
LAYER_1
  6
Continuous
 62
     1
100
AcDbPolyline
 90
       17
 70
   129
 43
0.0
 10
631.6
 20
143.087
 10
632.32
 20
132.834
 10
634.4819999999999
 20
126.699
 10
637.7
 20
123.642
 10
641.5930000000001
 20
122.623
 10
645.485
 20
123.646
 10
648.704
 20
126.716
 10
650.865
 20
132.855
 10
651.5859999999999
 20
143.087
 10
650.865
 20
153.361
 10
648.704
 20
159.492
 10
645.468
 20
162.536
 10
641.525
 20
163.551
 10
637.722
 20
162.655
 10
634.7709999999999
 20
159.969
 10
632.393
 20
153.464
 10
631.6
 20
143.087
  0
LWPOLYLINE
  5
127F
330
22
100
AcDbEntity
  8
LAYER_1
  6
Continuous
 62
     1
100
AcDbPolyline
 90
       21
 70
   129
 43
0.0
 10
664.1369999999999
 20
143.087
 10
664.593
 20
151.089
 10
665.962
 20
157.36
 10
668.23
 20
162.148
 10
671.3849999999999
 20
165.699
 10
675.448
 20
167.899
 10
680.4400000000001
 20
168.633
 10
687.5
 20
167.012
 10
692.5139999999998
 20
162.34
 10
695.617
 20
154.905
 10
696.743
 20
143.087
 10
696.291
 20
135.136
 10
694.9349999999999
 20
128.881
 10
692.68
 20
124.09
 10
689.529
 20
120.525
 10
685.4580000000001
 20
118.313
 10
680.4400000000001
 20
117.575
 10
673.985
 20
118.871
 10
669.083
 20
122.759
 10
665.373
 20
130.962
 10
664.1369999999999
 20
143.087
  0
LWPOLYLINE
  5
1296
330
22
100
AcDbEntity
  8
LAYER_1
  6
Continuous
 62
     1
100
AcDbPolyline
 90
       17
 70
   129
 43
0.0
 10
670.447
 20
143.087
 10
671.1669999999998
 20
132.834
 10
673.3289999999999
 20
126.699
 10
676.548
 20
123.642
 10
680.4400000000001
 20
122.623
 10
684.332
 20
123.646
 10
687.551
 20
126.716
 10
689.713
 20
132.855
 10
690.4329999999999
 20
143.087
 10
689.713
 20
153.361
 10
687.551
 20
159.492
 10
684.315
 20
162.536
 10
680.3719999999999
 20
163.551
 10
676.5689999999999
 20
162.655
 10
673.6189999999999
 20
159.969
 10
671.24
 20
153.464
 10
670.447
 20
143.087
  0
LWPOLYLINE
  5
12A9
330
22
100
AcDbEntity
  8
LAYER_1
  6
Continuous
 62
     1
100
AcDbPolyline
 90
       36
 70
   129
 43
0.0
 10
704.69
 20
118.428
 10
704.69
 20
154.649
 10
710.181
 20
154.649
 10
710.181
 20
149.567
 10
714.717
 20
153.847
 10
721.163
 20
155.467
 10
727.763
 20
153.796
 10
729.958
 20
151.792
 10
731.395
 20
149.124
 10
736.34
 20
153.881
 10
742.5819999999999
 20
155.467
 10
747.3480000000001
 20
154.721
 10
750.87
 20
152.483
 10
753.0439999999999
 20
148.693
 10
753.7689999999998
 20
143.291
 10
753.7689999999998
 20
118.428
 10
747.6639999999999
 20
118.428
 10
747.6639999999999
 20
141.245
 10
747.067
 20
146.549
 10
744.9010000000001
 20
149.158
 10
741.2180000000001
 20
150.147
 10
737.722
 20
149.512
 10
734.8739999999999
 20
147.606
 10
732.9810000000001
 20
144.302
 10
732.35
 20
139.472
 10
732.35
 20
118.428
 10
726.2109999999999
 20
118.428
 10
726.2109999999999
 20
141.961
 10
724.71
 20
148.1
 10
722.7319999999999
 20
149.635
 10
719.7989999999999
 20
150.147
 10
715.0069999999999
 20
148.783
 10
711.8179999999999
 20
144.792
 10
710.8289999999999
 20
137.221
 10
710.8289999999999
 20
118.428
 10
704.69
 20
118.428
  0
LWPOLYLINE
  5
12CF
330
22
100
AcDbEntity
  8
LAYER_1
  6
Continuous
 62
     1
100
AcDbPolyline
 90
       36
 70
   129
 43
0.0
 10
762.875
 20
118.428
 10
762.875
 20
154.649
 10
768.3660000000001
 20
154.649
 10
768.3660000000001
 20
149.567
 10
772.9019999999999
 20
153.847
 10
779.3489999999999
 20
155.467
 10
785.9479999999999
 20
153.796
 10
788.1439999999998
 20
151.792
 10
789.58
 20
149.124
 10
794.5260000000001
 20
153.881
 10
800.7669999999999
 20
155.467
 10
805.5339999999999
 20
154.721
 10
809.055
 20
152.483
 10
811.2300000000001
 20
148.693
 10
811.9539999999998
 20
143.291
 10
811.9539999999998
 20
118.428
 10
805.8489999999999
 20
118.428
 10
805.8489999999999
 20
141.245
 10
805.2519999999999
 20
146.549
 10
803.087
 20
149.158
 10
799.403
 20
150.147
 10
795.9069999999999
 20
149.512
 10
793.0589999999999
 20
147.606
 10
791.166
 20
144.302
 10
790.5349999999999
 20
139.472
 10
790.5349999999999
 20
118.428
 10
784.396
 20
118.428
 10
784.396
 20
141.961
 10
782.8960000000001
 20
148.1
 10
780.9169999999999
 20
149.635
 10
777.9839999999999
 20
150.147
 10
773.192
 20
148.783
 10
770.003
 20
144.792
 10
769.0139999999999
 20
137.221
 10
769.0139999999999
 20
118.428
 10
762.875
 20
118.428
  0
LINE
  5
12F5
330
22
100
AcDbEntity
  8
LAYER_1
  6
Continuous
 62
     7
100
AcDbLine
 10
1920.0
 20
900.0
 30
0.0
 11
2830.0
 21
900.0
 31
0.0
  0
LWPOLYLINE
  5
12F6
330
22
100
AcDbEntity
  8
LAYER_1
  6
Continuous
 62
     7
100
AcDbPolyline
 90
        4
 70
   129
 43
0.0
 10
2810.0
 20
900.0
 10
2816.95
 20
860.608
 10
2803.050000000001
 20
860.608
 10
2810.0
 20
900.0
  0
LINE
  5
12FC
330
22
100
AcDbEntity
  8
LAYER_1
  6
Continuous
 62
     7
100
AcDbLine
 10
2810.0
 20
900.0
 30
0.0
 11
2810.0
 21
500.0
 31
0.0
  0
LWPOLYLINE
  5
12FD
330
22
100
AcDbEntity
  8
LAYER_1
  6
Continuous
 62
     7
100
AcDbPolyline
 90
        4
 70
   129
 43
0.0
 10
2810.0
 20
500.0
 10
2803.050000000001
 20
539.3919999999999
 10
2816.95
 20
539.3919999999999
 10
2810.0
 20
500.0
  0
LINE
  5
1303
330
22
100
AcDbEntity
  8
LAYER_1
  6
Continuous
 62
     7
100
AcDbLine
 10
2830.0
 20
500.0
 30
0.0
 11
1920.0
 21
500.0
 31
0.0
  0
LWPOLYLINE
  5
1304
330
22
100
AcDbEntity
  8
LAYER_1
  6
Continuous
 62
     1
100
AcDbPolyline
 90
       12
 70
   129
 43
0.0
 10
2785.0
 20
606.1219999999999
 10
2773.03
 20
606.1219999999999
 10
2773.03
 20
584.4299999999999
 10
2767.4
 20
584.4299999999999
 10
2735.0
 20
607.248
 10
2735.0
 20
612.2609999999999
 10
2767.4
 20
612.2609999999999
 10
2767.4
 20
619.014
 10
2773.03
 20
619.014
 10
2773.03
 20
612.2609999999999
 10
2785.0
 20
612.2609999999999
 10
2785.0
 20
606.1219999999999
  0
LWPOLYLINE
  5
1312
330
22
100
AcDbEntity
  8
LAYER_1
  6
Continuous
 62
     1
100
AcDbPolyline
 90
        4
 70
   129
 43
0.0
 10
2767.4
 20
606.1219999999999
 10
2744.86
 20
606.1219999999999
 10
2767.4
 20
590.467
 10
2767.4
 20
606.1219999999999
  0
LWPOLYLINE
  5
1318
330
22
100
AcDbEntity
  8
LAYER_1
  6
Continuous
 62
     1
100
AcDbPolyline
 90
       21
 70
   129
 43
0.0
 10
2760.34
 20
625.2899999999999
 10
2752.34
 20
625.746
 10
2746.07
 20
627.115
 10
2741.280000000001
 20
629.383
 10
2737.73
 20
632.538
 10
2735.530000000001
 20
636.6
 10
2734.8
 20
641.5930000000001
 10
2736.42
 20
648.653
 10
2741.09
 20
653.6659999999999
 10
2748.52
 20
656.77
 10
2760.34
 20
657.8960000000001
 10
2768.29
 20
657.444
 10
2774.55
 20
656.088
 10
2779.34
 20
653.8330000000001
 10
2782.9
 20
650.682
 10
2785.12
 20
646.611
 10
2785.85
 20
641.5930000000001
 10
2784.56
 20
635.138
 10
2780.670000000001
 20
630.235
 10
2772.47
 20
626.5259999999999
 10
2760.34
 20
625.2899999999999
  0
LWPOLYLINE
  5
132F
330
22
100
AcDbEntity
  8
LAYER_1
  6
Continuous
 62
     1
100
AcDbPolyline
 90
       17
 70
   129
 43
0.0
 10
2760.34
 20
631.6
 10
2770.59
 20
632.32
 10
2776.730000000001
 20
634.4819999999999
 10
2779.79
 20
637.7
 10
2780.800000000001
 20
641.5930000000001
 10
2779.780000000001
 20
645.485
 10
2776.71
 20
648.704
 10
2770.570000000001
 20
650.865
 10
2760.34
 20
651.5859999999999
 10
2750.07
 20
650.865
 10
2743.94
 20
648.704
 10
2740.89
 20
645.468
 10
2739.88
 20
641.525
 10
2740.77
 20
637.722
 10
2743.46
 20
634.7709999999999
 10
2749.96
 20
632.393
 10
2760.34
 20
631.6
  0
LWPOLYLINE
  5
1342
330
22
100
AcDbEntity
  8
LAYER_1
  6
Continuous
 62
     1
100
AcDbPolyline
 90
       21
 70
   129
 43
0.0
 10
2760.34
 20
664.1369999999999
 10
2752.34
 20
664.593
 10
2746.07
 20
665.962
 10
2741.280000000001
 20
668.23
 10
2737.73
 20
671.3849999999999
 10
2735.530000000001
 20
675.448
 10
2734.8
 20
680.4400000000001
 10
2736.42
 20
687.5
 10
2741.09
 20
692.5139999999998
 10
2748.52
 20
695.617
 10
2760.34
 20
696.743
 10
2768.29
 20
696.291
 10
2774.55
 20
694.9349999999999
 10
2779.34
 20
692.68
 10
2782.9
 20
689.529
 10
2785.12
 20
685.4580000000001
 10
2785.85
 20
680.4400000000001
 10
2784.56
 20
673.985
 10
2780.670000000001
 20
669.083
 10
2772.47
 20
665.373
 10
2760.34
 20
664.1369999999999
  0
LWPOLYLINE
  5
1359
330
22
100
AcDbEntity
  8
LAYER_1
  6
Continuous
 62
     1
100
AcDbPolyline
 90
       17
 70
   129
 43
0.0
 10
2760.34
 20
670.447
 10
2770.59
 20
671.1669999999998
 10
2776.730000000001
 20
673.3289999999999
 10
2779.79
 20
676.548
 10
2780.800000000001
 20
680.4400000000001
 10
2779.780000000001
 20
684.332
 10
2776.71
 20
687.551
 10
2770.570000000001
 20
689.713
 10
2760.34
 20
690.4329999999999
 10
2750.07
 20
689.713
 10
2743.94
 20
687.551
 10
2740.89
 20
684.315
 10
2739.88
 20
680.3719999999999
 10
2740.77
 20
676.5689999999999
 10
2743.46
 20
673.6189999999999
 10
2749.96
 20
671.24
 10
2760.34
 20
670.447
  0
LWPOLYLINE
  5
136C
330
22
100
AcDbEntity
  8
LAYER_1
  6
Continuous
 62
     1
100
AcDbPolyline
 90
       36
 70
   129
 43
0.0
 10
2785.0
 20
704.69
 10
2748.78
 20
704.69
 10
2748.78
 20
710.181
 10
2753.86
 20
710.181
 10
2749.58
 20
714.717
 10
2747.96
 20
721.163
 10
2749.63
 20
727.763
 10
2751.64
 20
729.958
 10
2754.300000000001
 20
731.395
 10
2749.550000000001
 20
736.34
 10
2747.96
 20
742.5819999999999
 10
2748.71
 20
747.3480000000001
 10
2750.94
 20
750.87
 10
2754.73
 20
753.0439999999999
 10
2760.14
 20
753.7689999999998
 10
2785.0
 20
753.7689999999998
 10
2785.0
 20
747.6639999999999
 10
2762.18
 20
747.6639999999999
 10
2756.880000000001
 20
747.067
 10
2754.27
 20
744.9010000000001
 10
2753.28
 20
741.2180000000001
 10
2753.92
 20
737.722
 10
2755.82
 20
734.8739999999999
 10
2759.13
 20
732.9810000000001
 10
2763.96
 20
732.35
 10
2785.0
 20
732.35
 10
2785.0
 20
726.2109999999999
 10
2761.47
 20
726.2109999999999
 10
2755.33
 20
724.71
 10
2753.79
 20
722.7319999999999
 10
2753.28
 20
719.7989999999999
 10
2754.65
 20
715.0069999999999
 10
2758.64
 20
711.8179999999999
 10
2766.21
 20
710.8289999999999
 10
2785.0
 20
710.8289999999999
 10
2785.0
 20
704.69
  0
LWPOLYLINE
  5
1392
330
22
100
AcDbEntity
  8
LAYER_1
  6
Continuous
 62
     1
100
AcDbPolyline
 90
       36
 70
   129
 43
0.0
 10
2785.0
 20
762.875
 10
2748.78
 20
762.875
 10
2748.78
 20
768.3660000000001
 10
2753.86
 20
768.3660000000001
 10
2749.58
 20
772.9019999999999
 10
2747.96
 20
779.3489999999999
 10
2749.63
 20
785.9479999999999
 10
2751.64
 20
788.1439999999998
 10
2754.300000000001
 20
789.58
 10
2749.550000000001
 20
794.5260000000001
 10
2747.96
 20
800.7669999999999
 10
2748.71
 20
805.5339999999999
 10
2750.94
 20
809.055
 10
2754.73
 20
811.2300000000001
 10
2760.14
 20
811.9539999999998
 10
2785.0
 20
811.9539999999998
 10
2785.0
 20
805.8489999999999
 10
2762.18
 20
805.8489999999999
 10
2756.880000000001
 20
805.2519999999999
 10
2754.27
 20
803.087
 10
2753.28
 20
799.403
 10
2753.92
 20
795.9069999999999
 10
2755.82
 20
793.0589999999999
 10
2759.13
 20
791.166
 10
2763.96
 20
790.5349999999999
 10
2785.0
 20
790.5349999999999
 10
2785.0
 20
784.396
 10
2761.47
 20
784.396
 10
2755.33
 20
782.8960000000001
 10
2753.79
 20
780.9169999999999
 10
2753.28
 20
777.9839999999999
 10
2754.65
 20
773.192
 10
2758.64
 20
770.003
 10
2766.21
 20
769.0139999999999
 10
2785.0
 20
769.0139999999999
 10
2785.0
 20
762.875
  0
LINE
  5
13B8
330
22
100
AcDbEntity
  8
LAYER_1
  6
Continuous
 62
     7
100
AcDbLine
 10
1720.0
 20
1300.0
 30
0.0
 11
2940.0
 21
1300.0
 31
0.0
  0
LWPOLYLINE
  5
13B9
330
22
100
AcDbEntity
  8
LAYER_1
  6
Continuous
 62
     7
100
AcDbPolyline
 90
        4
 70
   129
 43
0.0
 10
2920.0
 20
1300.0
 10
2926.95
 20
1260.61
 10
2913.05
 20
1260.61
 10
2920.0
 20
1300.0
  0
LINE
  5
13BF
330
22
100
AcDbEntity
  8
LAYER_1
  6
Continuous
 62
     7
100
AcDbLine
 10
2920.0
 20
1300.0
 30
0.0
 11
2920.0
 21
500.475
 31
0.0
  0
LWPOLYLINE
  5
13C0
330
22
100
AcDbEntity
  8
LAYER_1
  6
Continuous
 62
     7
100
AcDbPolyline
 90
        4
 70
   129
 43
0.0
 10
2920.0
 20
500.475
 10
2913.05
 20
539.868
 10
2926.95
 20
539.868
 10
2920.0
 20
500.475
  0
LINE
  5
13C6
330
22
100
AcDbEntity
  8
LAYER_1
  6
Continuous
 62
     7
100
AcDbLine
 10
2940.0
 20
500.475
 30
0.0
 11
1916.06
 21
500.475
 31
0.0
  0
LWPOLYLINE
  5
13C7
330
22
100
AcDbEntity
  8
LAYER_1
  6
Continuous
 62
     1
100
AcDbPolyline
 90
       33
 70
   129
 43
0.0
 10
2867.89
 20
796.128
 10
2866.19
 20
792.802
 10
2863.89
 20
790.466
 10
2861.05
 20
789.085
 10
2857.69
 20
788.6239999999999
 10
2852.67
 20
789.605
 10
2848.51
 20
792.547
 10
2845.72
 20
797.1169999999999
 10
2844.800000000001
 20
802.983
 10
2845.75
 20
808.8919999999999
 10
2848.6
 20
813.522
 10
2852.81
 20
816.515
 10
2857.86
 20
817.5130000000001
 10
2861.11
 20
817.056
 10
2863.91
 20
815.6879999999999
 10
2866.19
 20
813.39
 10
2867.89
 20
810.1460000000001
 10
2869.85
 20
814.2000000000001
 10
2872.73
 20
817.154
 10
2876.39
 20
818.9580000000001
 10
2880.71
 20
819.5589999999999
 10
2886.610000000001
 20
818.425
 10
2891.49
 20
815.023
 10
2894.76
 20
809.7699999999999
 10
2895.85
 20
803.085
 10
2894.76
 20
796.401
 10
2891.47
 20
791.148
 10
2886.55
 20
787.7460000000001
 10
2880.54
 20
786.6119999999999
 10
2876.06
 20
787.23
 10
2872.37
 20
789.085
 10
2869.6
 20
792.0819999999999
 10
2867.89
 20
796.128
  0
LWPOLYLINE
  5
13EA
330
22
100
AcDbEntity
  8
LAYER_1
  6
Continuous
 62
     1
100
AcDbPolyline
 90
       17
 70
   129
 43
0.0
 10
2857.48
 20
794.8999999999999
 10
2860.71
 20
795.471
 10
2863.280000000001
 20
797.1849999999999
 10
2864.97
 20
799.811
 10
2865.530000000001
 20
803.12
 10
2864.97
 20
806.347
 10
2863.3
 20
808.9349999999999
 10
2860.81
 20
810.636
 10
2857.82
 20
811.203
 10
2854.72
 20
810.6189999999999
 10
2852.15
 20
808.867
 10
2850.42
 20
806.245
 10
2849.84
 20
803.0510000000001
 10
2850.41
 20
799.837
 10
2852.09
 20
797.2189999999999
 10
2854.570000000001
 20
795.48
 10
2857.48
 20
794.8999999999999
  0
LWPOLYLINE
  5
13FD
330
22
100
AcDbEntity
  8
LAYER_1
  6
Continuous
 62
     1
100
AcDbPolyline
 90
       16
 70
   129
 43
0.0
 10
2880.57
 20
792.922
 10
2885.65
 20
794.1669999999999
 10
2889.46
 20
797.867
 10
2890.8
 20
803.1539999999999
 10
2890.1
 20
807.1699999999999
 10
2887.97
 20
810.4179999999999
 10
2884.76
 20
812.5669999999999
 10
2880.780000000001
 20
813.283
 10
2876.73
 20
812.546
 10
2873.44
 20
810.3330000000001
 10
2871.27
 20
807.0119999999999
 10
2870.55
 20
802.9489999999999
 10
2871.26
 20
798.988
 10
2873.41
 20
795.7699999999999
 10
2876.63
 20
793.6339999999999
 10
2880.57
 20
792.922
  0
LWPOLYLINE
  5
140F
330
22
100
AcDbEntity
  8
LAYER_1
  6
Continuous
 62
     1
100
AcDbPolyline
 90
       21
 70
   129
 43
0.0
 10
2870.34
 20
825.528
 10
2862.340000000001
 20
825.9839999999998
 10
2856.07
 20
827.3519999999999
 10
2851.28
 20
829.62
 10
2847.73
 20
832.7749999999999
 10
2845.53
 20
836.838
 10
2844.800000000001
 20
841.83
 10
2846.42
 20
848.8899999999999
 10
2851.090000000001
 20
853.9039999999999
 10
2858.52
 20
857.008
 10
2870.34
 20
858.1330000000001
 10
2878.29
 20
857.681
 10
2884.55
 20
856.3259999999999
 10
2889.340000000001
 20
854.0700000000001
 10
2892.9
 20
850.9199999999999
 10
2895.12
 20
846.8480000000001
 10
2895.85
 20
841.83
 10
2894.56
 20
835.3760000000001
 10
2890.67
 20
830.4730000000001
 10
2882.47
 20
826.7639999999998
 10
2870.34
 20
825.528
  0
LWPOLYLINE
  5
1426
330
22
100
AcDbEntity
  8
LAYER_1
  6
Continuous
 62
     1
100
AcDbPolyline
 90
       17
 70
   129
 43
0.0
 10
2870.34
 20
831.8369999999999
 10
2880.59
 20
832.558
 10
2886.73
 20
834.7189999999999
 10
2889.79
 20
837.9379999999999
 10
2890.8
 20
841.83
 10
2889.78
 20
845.723
 10
2886.71
 20
848.942
 10
2880.57
 20
851.1030000000001
 10
2870.34
 20
851.824
 10
2860.07
 20
851.1030000000001
 10
2853.94
 20
848.942
 10
2850.89
 20
845.706
 10
2849.88
 20
841.7619999999999
 10
2850.77
 20
837.959
 10
2853.46
 20
835.0089999999999
 10
2859.96
 20
832.6299999999999
 10
2870.34
 20
831.8369999999999
  0
LWPOLYLINE
  5
1439
330
22
100
AcDbEntity
  8
LAYER_1
  6
Continuous
 62
     1
100
AcDbPolyline
 90
       21
 70
   129
 43
0.0
 10
2870.34
 20
864.375
 10
2862.340000000001
 20
864.831
 10
2856.07
 20
866.1989999999999
 10
2851.28
 20
868.467
 10
2847.73
 20
871.6219999999999
 10
2845.53
 20
875.685
 10
2844.800000000001
 20
880.6779999999999
 10
2846.42
 20
887.738
 10
2851.090000000001
 20
892.7510000000001
 10
2858.52
 20
895.855
 10
2870.34
 20
896.9800000000001
 10
2878.29
 20
896.5289999999999
 10
2884.55
 20
895.1729999999999
 10
2889.340000000001
 20
892.918
 10
2892.9
 20
889.7669999999999
 10
2895.12
 20
885.6950000000001
 10
2895.85
 20
880.6779999999999
 10
2894.56
 20
874.2230000000001
 10
2890.67
 20
869.32
 10
2882.47
 20
865.6110000000001
 10
2870.34
 20
864.375
  0
LWPOLYLINE
  5
1450
330
22
100
AcDbEntity
  8
LAYER_1
  6
Continuous
 62
     1
100
AcDbPolyline
 90
       17
 70
   129
 43
0.0
 10
2870.34
 20
870.6839999999999
 10
2880.59
 20
871.405
 10
2886.73
 20
873.5660000000001
 10
2889.79
 20
876.7849999999999
 10
2890.8
 20
880.6779999999999
 10
2889.78
 20
884.57
 10
2886.71
 20
887.789
 10
2880.57
 20
889.9500000000001
 10
2870.34
 20
890.671
 10
2860.07
 20
889.9500000000001
 10
2853.94
 20
887.789
 10
2850.89
 20
884.553
 10
2849.88
 20
880.6089999999999
 10
2850.77
 20
876.8069999999999
 10
2853.46
 20
873.8560000000001
 10
2859.96
 20
871.4769999999999
 10
2870.34
 20
870.6839999999999
  0
LWPOLYLINE
  5
1463
330
22
100
AcDbEntity
  8
LAYER_1
  6
Continuous
 62
     1
100
AcDbPolyline
 90
       36
 70
   129
 43
0.0
 10
2895.0
 20
904.9269999999999
 10
2858.78
 20
904.9269999999999
 10
2858.78
 20
910.4179999999999
 10
2863.86
 20
910.4179999999999
 10
2859.58
 20
914.9550000000001
 10
2857.96
 20
921.401
 10
2859.630000000001
 20
928.0
 10
2861.64
 20
930.1960000000001
 10
2864.3
 20
931.633
 10
2859.55
 20
936.5779999999999
 10
2857.96
 20
942.8189999999998
 10
2858.71
 20
947.586
 10
2860.94
 20
951.107
 10
2864.73
 20
953.2819999999999
 10
2870.14
 20
954.006
 10
2895.0
 20
954.006
 10
2895.0
 20
947.901
 10
2872.18
 20
947.901
 10
2866.88
 20
947.3039999999999
 10
2864.27
 20
945.1389999999999
 10
2863.280000000001
 20
941.455
 10
2863.92
 20
937.959
 10
2865.82
 20
935.1110000000002
 10
2869.13
 20
933.2189999999998
 10
2873.96
 20
932.5880000000001
 10
2895.0
 20
932.5880000000001
 10
2895.0
 20
926.448
 10
2871.47
 20
926.448
 10
2865.33
 20
924.948
 10
2863.79
 20
922.9700000000001
 10
2863.280000000001
 20
920.0360000000001
 10
2864.650000000001
 20
915.2439999999998
 10
2868.64
 20
912.0549999999999
 10
2876.21
 20
911.0660000000001
 10
2895.0
 20
911.0660000000001
 10
2895.0
 20
904.9269999999999
  0
LWPOLYLINE
  5
1489
330
22
100
AcDbEntity
  8
LAYER_1
  6
Continuous
 62
     1
100
AcDbPolyline
 90
       36
 70
   129
 43
0.0
 10
2895.0
 20
963.113
 10
2858.78
 20
963.113
 10
2858.78
 20
968.604
 10
2863.86
 20
968.604
 10
2859.58
 20
973.14
 10
2857.96
 20
979.5860000000001
 10
2859.630000000001
 20
986.186
 10
2861.64
 20
988.381
 10
2864.3
 20
989.8179999999999
 10
2859.55
 20
994.7639999999999
 10
2857.96
 20
1001.01
 10
2858.71
 20
1005.77
 10
2860.94
 20
1009.29
 10
2864.73
 20
1011.47
 10
2870.14
 20
1012.19
 10
2895.0
 20
1012.19
 10
2895.0
 20
1006.09
 10
2872.18
 20
1006.09
 10
2866.88
 20
1005.49
 10
2864.27
 20
1003.32
 10
2863.280000000001
 20
999.641
 10
2863.92
 20
996.1449999999999
 10
2865.82
 20
993.297
 10
2869.13
 20
991.4039999999999
 10
2873.96
 20
990.773
 10
2895.0
 20
990.773
 10
2895.0
 20
984.6339999999999
 10
2871.47
 20
984.6339999999999
 10
2865.33
 20
983.1330000000001
 10
2863.79
 20
981.155
 10
2863.280000000001
 20
978.222
 10
2864.650000000001
 20
973.4299999999999
 10
2868.64
 20
970.241
 10
2876.21
 20
969.252
 10
2895.0
 20
969.252
 10
2895.0
 20
963.113
  0
LINE
  5
14AF
330
22
100
AcDbEntity
  8
LAYER_1
  6
Continuous
 62
     7
100
AcDbLine
 10
1080.0
 20
1100.0
 30
0.0
 11
200.0
 21
1100.0
 31
0.0
  0
LWPOLYLINE
  5
14B0
330
22
100
AcDbEntity
  8
LAYER_1
  6
Continuous
 62
     7
100
AcDbPolyline
 90
        4
 70
   129
 43
0.0
 10
220.0
 20
1100.0
 10
226.946
 20
1060.61
 10
213.054
 20
1060.61
 10
220.0
 20
1100.0
  0
LINE
  5
14B6
330
22
100
AcDbEntity
  8
LAYER_1
  6
Continuous
 62
     7
100
AcDbLine
 10
220.0
 20
1100.0
 30
0.0
 11
220.0
 21
500.0
 31
0.0
  0
LWPOLYLINE
  5
14B7
330
22
100
AcDbEntity
  8
LAYER_1
  6
Continuous
 62
     7
100
AcDbPolyline
 90
        4
 70
   129
 43
0.0
 10
220.0
 20
500.0
 10
213.054
 20
539.3919999999999
 10
226.946
 20
539.3919999999999
 10
220.0
 20
500.0
  0
LINE
  5
14BD
330
22
100
AcDbEntity
  8
LAYER_1
  6
Continuous
 62
     7
100
AcDbLine
 10
200.0
 20
500.0
 30
0.0
 11
1080.0
 21
500.0
 31
0.0
  0
LWPOLYLINE
  5
14BE
330
22
100
AcDbEntity
  8
LAYER_1
  6
Continuous
 62
     1
100
AcDbPolyline
 90
       35
 70
   129
 43
0.0
 10
157.244
 20
718.298
 10
157.722
 20
712.1929999999999
 10
152.469
 20
709.8739999999999
 10
150.5
 20
707.0939999999999
 10
149.843
 20
703.7349999999999
 10
151.48
 20
698.585
 10
154.081
 20
695.9919999999999
 10
157.653
 20
694.0139999999999
 10
162.573
 20
692.7439999999998
 10
169.216
 20
692.2749999999999
 10
164.202
 20
697.698
 10
162.565
 20
704.4169999999999
 10
163.695
 20
710.0999999999999
 10
167.084
 20
714.8699999999999
 10
172.264
 20
718.1060000000001
 10
178.765
 20
719.1849999999999
 10
183.306
 20
718.6779999999999
 10
187.514
 20
717.156
 10
191.082
 20
714.7469999999999
 10
193.704
 20
711.5789999999999
 10
195.315
 20
707.793
 10
195.853
 20
703.5299999999999
 10
194.442
 20
696.5639999999999
 10
190.208
 20
691.013
 10
182.734
 20
687.381
 10
171.603
 20
686.1699999999999
 10
159.086
 20
687.5089999999999
 10
154.311
 20
689.182
 10
150.525
 20
691.525
 10
146.2279999999999
 20
697.0069999999999
 10
144.795
 20
704.11
 10
145.622
 20
709.4769999999999
 10
148.104
 20
713.7789999999999
 10
152.043
 20
716.793
 10
157.244
 20
718.298
  0
LWPOLYLINE
  5
14E3
330
22
100
AcDbEntity
  8
LAYER_1
  6
Continuous
 62
     1
100
AcDbPolyline
 90
       16
 70
   129
 43
0.0
 10
178.799
 20
693.23
 10
184.87
 20
694.577
 10
189.287
 20
698.346
 10
190.805
 20
703.4279999999999
 10
190.02
 20
707.0429999999999
 10
187.667
 20
710.113
 10
183.967
 20
712.21
 10
179.141
 20
712.9089999999999
 10
174.506
 20
712.2189999999999
 10
170.972
 20
710.1469999999999
 10
168.734
 20
707.0260000000001
 10
167.988
 20
703.1889999999999
 10
168.734
 20
699.343
 10
170.972
 20
696.1289999999999
 10
174.421
 20
693.955
 10
178.799
 20
693.23
  0
LWPOLYLINE
  5
14F5
330
22
100
AcDbEntity
  8
LAYER_1
  6
Continuous
 62
     1
100
AcDbPolyline
 90
       21
 70
   129
 43
0.0
 10
170.341
 20
725.2899999999999
 10
162.339
 20
725.746
 10
156.068
 20
727.115
 10
151.28
 20
729.383
 10
147.7289999999999
 20
732.538
 10
145.529
 20
736.6
 10
144.795
 20
741.5930000000001
 10
146.415
 20
748.653
 10
151.088
 20
753.666
 10
158.523
 20
756.77
 10
170.341
 20
757.8960000000001
 10
178.292
 20
757.444
 10
184.546
 20
756.088
 10
189.338
 20
753.8330000000001
 10
192.902
 20
750.682
 10
195.115
 20
746.6110000000001
 10
195.853
 20
741.5930000000001
 10
194.557
 20
735.138
 10
190.668
 20
730.235
 10
182.4659999999999
 20
726.526
 10
170.341
 20
725.2899999999999
  0
LWPOLYLINE
  5
150C
330
22
100
AcDbEntity
  8
LAYER_1
  6
Continuous
 62
     1
100
AcDbPolyline
 90
       17
 70
   129
 43
0.0
 10
170.341
 20
731.6
 10
180.594
 20
732.32
 10
186.729
 20
734.4819999999999
 10
189.7859999999999
 20
737.7
 10
190.805
 20
741.5930000000001
 10
189.782
 20
745.485
 10
186.712
 20
748.7039999999999
 10
180.573
 20
750.865
 10
170.341
 20
751.5859999999999
 10
160.067
 20
750.865
 10
153.936
 20
748.7039999999999
 10
150.892
 20
745.468
 10
149.877
 20
741.525
 10
150.773
 20
737.722
 10
153.458
 20
734.7710000000001
 10
159.964
 20
732.393
 10
170.341
 20
731.6
  0
LWPOLYLINE
  5
151F
330
22
100
AcDbEntity
  8
LAYER_1
  6
Continuous
 62
     1
100
AcDbPolyline
 90
       21
 70
   129
 43
0.0
 10
170.341
 20
764.1369999999999
 10
162.339
 20
764.593
 10
156.068
 20
765.962
 10
151.28
 20
768.23
 10
147.7289999999999
 20
771.3849999999999
 10
145.529
 20
775.448
 10
144.795
 20
780.4400000000001
 10
146.415
 20
787.5
 10
151.088
 20
792.5139999999998
 10
158.523
 20
795.617
 10
170.341
 20
796.7430000000001
 10
178.292
 20
796.291
 10
184.546
 20
794.9349999999999
 10
189.338
 20
792.68
 10
192.902
 20
789.529
 10
195.115
 20
785.4580000000001
 10
195.853
 20
780.4400000000001
 10
194.557
 20
773.985
 10
190.668
 20
769.083
 10
182.4659999999999
 20
765.373
 10
170.341
 20
764.1369999999999
  0
LWPOLYLINE
  5
1536
330
22
100
AcDbEntity
  8
LAYER_1
  6
Continuous
 62
     1
100
AcDbPolyline
 90
       17
 70
   129
 43
0.0
 10
170.341
 20
770.447
 10
180.594
 20
771.1669999999998
 10
186.729
 20
773.3289999999999
 10
189.7859999999999
 20
776.548
 10
190.805
 20
780.4400000000001
 10
189.782
 20
784.332
 10
186.712
 20
787.551
 10
180.573
 20
789.713
 10
170.341
 20
790.4329999999999
 10
160.067
 20
789.713
 10
153.936
 20
787.551
 10
150.892
 20
784.315
 10
149.877
 20
780.3719999999999
 10
150.773
 20
776.569
 10
153.458
 20
773.6189999999999
 10
159.964
 20
771.24
 10
170.341
 20
770.447
  0
LWPOLYLINE
  5
1549
330
22
100
AcDbEntity
  8
LAYER_1
  6
Continuous
 62
     1
100
AcDbPolyline
 90
       36
 70
   129
 43
0.0
 10
195.0
 20
804.69
 10
158.779
 20
804.69
 10
158.779
 20
810.181
 10
163.861
 20
810.181
 10
159.58
 20
814.7169999999999
 10
157.96
 20
821.1629999999999
 10
159.632
 20
827.763
 10
161.635
 20
829.958
 10
164.304
 20
831.395
 10
159.546
 20
836.34
 10
157.96
 20
842.5819999999999
 10
158.707
 20
847.348
 10
160.945
 20
850.8700000000001
 10
164.735
 20
853.044
 10
170.136
 20
853.7689999999999
 10
195.0
 20
853.7689999999999
 10
195.0
 20
847.6639999999999
 10
172.183
 20
847.6639999999999
 10
166.879
 20
847.067
 10
164.27
 20
844.9010000000001
 10
163.281
 20
841.2180000000001
 10
163.916
 20
837.7219999999999
 10
165.822
 20
834.8739999999999
 10
169.1259999999999
 20
832.9810000000001
 10
173.956
 20
832.3500000000001
 10
195.0
 20
832.3500000000001
 10
195.0
 20
826.2109999999999
 10
171.467
 20
826.2109999999999
 10
165.327
 20
824.7099999999999
 10
163.793
 20
822.732
 10
163.281
 20
819.799
 10
164.645
 20
815.0069999999999
 10
168.636
 20
811.818
 10
176.207
 20
810.829
 10
195.0
 20
810.829
 10
195.0
 20
804.69
  0
LWPOLYLINE
  5
156F
330
22
100
AcDbEntity
  8
LAYER_1
  6
Continuous
 62
     1
100
AcDbPolyline
 90
       36
 70
   129
 43
0.0
 10
195.0
 20
862.875
 10
158.779
 20
862.875
 10
158.779
 20
868.3660000000001
 10
163.861
 20
868.3660000000001
 10
159.58
 20
872.902
 10
157.96
 20
879.349
 10
159.632
 20
885.9479999999999
 10
161.635
 20
888.1439999999999
 10
164.304
 20
889.5800000000001
 10
159.546
 20
894.5260000000001
 10
157.96
 20
900.7669999999999
 10
158.707
 20
905.5339999999999
 10
160.945
 20
909.055
 10
164.735
 20
911.2300000000001
 10
170.136
 20
911.9539999999998
 10
195.0
 20
911.9539999999998
 10
195.0
 20
905.8489999999999
 10
172.183
 20
905.8489999999999
 10
166.879
 20
905.2519999999999
 10
164.27
 20
903.087
 10
163.281
 20
899.403
 10
163.916
 20
895.9069999999998
 10
165.822
 20
893.059
 10
169.1259999999999
 20
891.1660000000001
 10
173.956
 20
890.535
 10
195.0
 20
890.535
 10
195.0
 20
884.396
 10
171.467
 20
884.396
 10
165.327
 20
882.896
 10
163.793
 20
880.9169999999999
 10
163.281
 20
877.984
 10
164.645
 20
873.192
 10
168.636
 20
870.0029999999999
 10
176.207
 20
869.0139999999999
 10
195.0
 20
869.0139999999999
 10
195.0
 20
862.875
  0
LINE
  5
1595
330
22
100
AcDbEntity
  8
LAYER_1
  6
Continuous
 62
     7
100
AcDbLine
 10
480.0
 20
1500.0
 30
0.0
 11
-8.233389999999999
 21
1500.0
 31
0.0
  0
LWPOLYLINE
  5
1596
330
22
100
AcDbEntity
  8
LAYER_1
  6
Continuous
 62
     7
100
AcDbPolyline
 90
        4
 70
   129
 43
0.0
 10
11.7666
 20
1500.0
 10
4.820689999999999
 20
1539.39
 10
18.7125
 20
1539.39
 10
11.7666
 20
1500.0
  0
LINE
  5
159C
330
22
100
AcDbEntity
  8
LAYER_1
  6
Continuous
 62
     7
100
AcDbLine
 10
11.7666
 20
1500.0
 30
0.0
 11
11.7666
 21
1700.0
 31
0.0
  0
LWPOLYLINE
  5
159D
330
22
100
AcDbEntity
  8
LAYER_1
  6
Continuous
 62
     7
100
AcDbPolyline
 90
        4
 70
   129
 43
0.0
 10
11.7666
 20
1700.0
 10
18.7125
 20
1660.61
 10
4.820689999999999
 20
1660.61
 10
11.7666
 20
1700.0
  0
LINE
  5
15A3
330
22
100
AcDbEntity
  8
LAYER_1
  6
Continuous
 62
     7
100
AcDbLine
 10
-8.233389999999999
 20
1700.0
 30
0.0
 11
480.0
 21
1700.0
 31
0.0
  0
LWPOLYLINE
  5
15A4
330
22
100
AcDbEntity
  8
LAYER_1
  6
Continuous
 62
     1
100
AcDbPolyline
 90
       32
 70
   129
 43
0.0
 10
-19.1338
 20
1518.71
 10
-13.2334
 20
1518.71
 10
-13.2334
 20
1485.66
 10
-17.4967
 20
1486.37
 10
-24.1474
 20
1490.42
 10
-31.7191
 20
1498.45
 10
-42.3091
 20
1509.46
 10
-46.1077
 20
1511.61
 10
-49.6931
 20
1512.33
 10
-53.0569
 20
1511.68
 10
-55.84929999999999
 20
1509.72
 10
-57.7295
 20
1506.71
 10
-58.3562
 20
1502.92
 10
-57.6911
 20
1498.93
 10
-55.6959
 20
1495.82
 10
-52.52399999999999
 20
1493.82
 10
-48.32889999999999
 20
1493.13
 10
-48.9769
 20
1486.82
 10
-55.19709999999999
 20
1488.36
 10
-59.73749999999999
 20
1491.7
 10
-62.5129
 20
1496.65
 10
-63.438
 20
1503.05
 10
-62.4404
 20
1509.5
 10
-59.4476
 20
1514.44
 10
-54.97959999999999
 20
1517.59
 10
-49.5567
 20
1518.64
 10
-43.6563
 20
1517.41
 10
-37.5513
 20
1513.34
 10
-28.7518
 20
1503.87
 10
-22.4592
 20
1496.78
 10
-19.1338
 20
1494.18
 10
-19.1338
 20
1518.71
  0
LWPOLYLINE
  5
15C6
330
22
100
AcDbEntity
  8
LAYER_1
  6
Continuous
 62
     1
100
AcDbPolyline
 90
       21
 70
   129
 43
0.0
 10
-37.8923
 20
1525.29
 10
-45.8945
 20
1525.75
 10
-52.1659
 20
1527.11
 10
-56.9535
 20
1529.38
 10
-60.50489999999999
 20
1532.54
 10
-62.7047
 20
1536.6
 10
-63.438
 20
1541.59
 10
-61.818
 20
1548.65
 10
-57.1454
 20
1553.67
 10
-49.7102
 20
1556.77
 10
-37.8923
 20
1557.9
 10
-29.9413
 20
1557.44
 10
-23.687
 20
1556.09
 10
-18.8951
 20
1553.83
 10
-15.3309
 20
1550.68
 10
-13.1183
 20
1546.61
 10
-12.3807
 20
1541.59
 10
-13.6768
 20
1535.14
 10
-17.5649
 20
1530.24
 10
-25.7675
 20
1526.53
 10
-37.8923
 20
1525.29
  0
LWPOLYLINE
  5
15DD
330
22
100
AcDbEntity
  8
LAYER_1
  6
Continuous
 62
     1
100
AcDbPolyline
 90
       17
 70
   129
 43
0.0
 10
-37.8923
 20
1531.6
 10
-27.6391
 20
1532.32
 10
-21.5042
 20
1534.48
 10
-18.4474
 20
1537.7
 10
-17.4285
 20
1541.59
 10
-18.4517
 20
1545.49
 10
-21.5212
 20
1548.7
 10
-27.6604
 20
1550.87
 10
-37.8923
 20
1551.59
 10
-48.1669
 20
1550.87
 10
-54.2975
 20
1548.7
 10
-57.3415
 20
1545.47
 10
-58.3562
 20
1541.52
 10
-57.4609
 20
1537.72
 10
-54.775
 20
1534.77
 10
-48.2692
 20
1532.39
 10
-37.8923
 20
1531.6
  0
LWPOLYLINE
  5
15F0
330
22
100
AcDbEntity
  8
LAYER_1
  6
Continuous
 62
     1
100
AcDbPolyline
 90
       21
 70
   129
 43
0.0
 10
-37.8923
 20
1564.14
 10
-45.8945
 20
1564.59
 10
-52.1659
 20
1565.96
 10
-56.9535
 20
1568.23
 10
-60.50489999999999
 20
1571.38
 10
-62.7047
 20
1575.45
 10
-63.438
 20
1580.44
 10
-61.818
 20
1587.5
 10
-57.1454
 20
1592.51
 10
-49.7102
 20
1595.62
 10
-37.8923
 20
1596.74
 10
-29.9413
 20
1596.29
 10
-23.687
 20
1594.94
 10
-18.8951
 20
1592.68
 10
-15.3309
 20
1589.53
 10
-13.1183
 20
1585.46
 10
-12.3807
 20
1580.44
 10
-13.6768
 20
1573.99
 10
-17.5649
 20
1569.08
 10
-25.7675
 20
1565.37
 10
-37.8923
 20
1564.14
  0
LWPOLYLINE
  5
1607
330
22
100
AcDbEntity
  8
LAYER_1
  6
Continuous
 62
     1
100
AcDbPolyline
 90
       17
 70
   129
 43
0.0
 10
-37.8923
 20
1570.45
 10
-27.6391
 20
1571.17
 10
-21.5042
 20
1573.33
 10
-18.4474
 20
1576.55
 10
-17.4285
 20
1580.44
 10
-18.4517
 20
1584.33
 10
-21.5212
 20
1587.55
 10
-27.6604
 20
1589.71
 10
-37.8923
 20
1590.43
 10
-48.1669
 20
1589.71
 10
-54.2975
 20
1587.55
 10
-57.3415
 20
1584.32
 10
-58.3562
 20
1580.37
 10
-57.4609
 20
1576.57
 10
-54.775
 20
1573.62
 10
-48.2692
 20
1571.24
 10
-37.8923
 20
1570.45
  0
LWPOLYLINE
  5
161A
330
22
100
AcDbEntity
  8
LAYER_1
  6
Continuous
 62
     1
100
AcDbPolyline
 90
       36
 70
   129
 43
0.0
 10
-13.2334
 20
1604.69
 10
-49.4544
 20
1604.69
 10
-49.4544
 20
1610.18
 10
-44.3725
 20
1610.18
 10
-48.6529
 20
1614.72
 10
-50.273
 20
1621.16
 10
-48.6017
 20
1627.76
 10
-46.59799999999999
 20
1629.96
 10
-43.9292
 20
1631.39
 10
-48.687
 20
1636.34
 10
-50.273
 20
1642.58
 10
-49.5269
 20
1647.35
 10
-47.2886
 20
1650.87
 10
-43.4986
 20
1653.04
 10
-38.097
 20
1653.77
 10
-13.2334
 20
1653.77
 10
-13.2334
 20
1647.66
 10
-36.0506
 20
1647.66
 10
-41.3541
 20
1647.07
 10
-43.96329999999999
 20
1644.9
 10
-44.95239999999999
 20
1641.22
 10
-44.3171
 20
1637.72
 10
-42.4114
 20
1634.87
 10
-39.1074
 20
1632.98
 10
-34.277
 20
1632.35
 10
-13.2334
 20
1632.35
 10
-13.2334
 20
1626.21
 10
-36.76680000000001
 20
1626.21
 10
-42.906
 20
1624.71
 10
-44.4408
 20
1622.73
 10
-44.95239999999999
 20
1619.8
 10
-43.5881
 20
1615.01
 10
-39.5976
 20
1611.819999999999
 10
-32.026
 20
1610.83
 10
-13.2334
 20
1610.83
 10
-13.2334
 20
1604.69
  0
LWPOLYLINE
  5
1640
330
22
100
AcDbEntity
  8
LAYER_1
  6
Continuous
 62
     1
100
AcDbPolyline
 90
       36
 70
   129
 43
0.0
 10
-13.2334
 20
1662.88
 10
-49.4544
 20
1662.88
 10
-49.4544
 20
1668.37
 10
-44.3725
 20
1668.37
 10
-48.6529
 20
1672.9
 10
-50.273
 20
1679.35
 10
-48.6017
 20
1685.95
 10
-46.59799999999999
 20
1688.14
 10
-43.9292
 20
1689.58
 10
-48.687
 20
1694.53
 10
-50.273
 20
1700.77
 10
-49.5269
 20
1705.53
 10
-47.2886
 20
1709.06
 10
-43.4986
 20
1711.23
 10
-38.097
 20
1711.95
 10
-13.2334
 20
1711.95
 10
-13.2334
 20
1705.85
 10
-36.0506
 20
1705.85
 10
-41.3541
 20
1705.25
 10
-43.96329999999999
 20
1703.09
 10
-44.95239999999999
 20
1699.4
 10
-44.3171
 20
1695.91
 10
-42.4114
 20
1693.06
 10
-39.1074
 20
1691.17
 10
-34.277
 20
1690.54
 10
-13.2334
 20
1690.54
 10
-13.2334
 20
1684.4
 10
-36.76680000000001
 20
1684.4
 10
-42.906
 20
1682.9
 10
-44.4408
 20
1680.92
 10
-44.95239999999999
 20
1677.98
 10
-43.5881
 20
1673.19
 10
-39.5976
 20
1670.0
 10
-32.026
 20
1669.01
 10
-13.2334
 20
1669.01
 10
-13.2334
 20
1662.88
  0
LINE
  5
1666
330
22
100
AcDbEntity
  8
LAYER_1
  6
Continuous
 62
     7
100
AcDbLine
 10
880.0
 20
1600.0
 30
0.0
 11
180.0
 21
1600.0
 31
0.0
  0
LWPOLYLINE
  5
1667
330
22
100
AcDbEntity
  8
LAYER_1
  6
Continuous
 62
     7
100
AcDbPolyline
 90
        4
 70
   129
 43
0.0
 10
200.0
 20
1600.0
 10
193.054
 20
1639.39
 10
206.946
 20
1639.39
 10
200.0
 20
1600.0
  0
LINE
  5
166D
330
22
100
AcDbEntity
  8
LAYER_1
  6
Continuous
 62
     7
100
AcDbLine
 10
200.0
 20
1600.0
 30
0.0
 11
200.0
 21
1700.0
 31
0.0
  0
LWPOLYLINE
  5
166E
330
22
100
AcDbEntity
  8
LAYER_1
  6
Continuous
 62
     7
100
AcDbPolyline
 90
        4
 70
   129
 43
0.0
 10
200.0
 20
1700.0
 10
206.946
 20
1660.61
 10
193.054
 20
1660.61
 10
200.0
 20
1700.0
  0
LINE
  5
1674
330
22
100
AcDbEntity
  8
LAYER_1
  6
Continuous
 62
     7
100
AcDbLine
 10
180.0
 20
1700.0
 30
0.0
 11
880.0
 21
1700.0
 31
0.0
  0
LWPOLYLINE
  5
1675
330
22
100
AcDbEntity
  8
LAYER_1
  6
Continuous
 62
     1
100
AcDbPolyline
 90
       10
 70
   129
 43
0.0
 10
175.0
 20
1559.57
 10
175.0
 20
1553.43
 10
135.88
 20
1553.43
 10
140.109
 20
1547.61
 10
143.281
 20
1541.15
 10
137.347
 20
1541.15
 10
131.48
 20
1550.15
 10
124.795
 20
1555.61
 10
124.795
 20
1559.57
 10
175.0
 20
1559.57
  0
LWPOLYLINE
  5
1681
330
22
100
AcDbEntity
  8
LAYER_1
  6
Continuous
 62
     1
100
AcDbPolyline
 90
       21
 70
   129
 43
0.0
 10
150.341
 20
1575.29
 10
142.339
 20
1575.75
 10
136.068
 20
1577.11
 10
131.28
 20
1579.38
 10
127.729
 20
1582.54
 10
125.529
 20
1586.6
 10
124.795
 20
1591.59
 10
126.415
 20
1598.65
 10
131.088
 20
1603.67
 10
138.523
 20
1606.77
 10
150.341
 20
1607.9
 10
158.292
 20
1607.44
 10
164.546
 20
1606.09
 10
169.338
 20
1603.83
 10
172.902
 20
1600.68
 10
175.115
 20
1596.61
 10
175.853
 20
1591.59
 10
174.557
 20
1585.14
 10
170.668
 20
1580.24
 10
162.466
 20
1576.53
 10
150.341
 20
1575.29
  0
LWPOLYLINE
  5
1698
330
22
100
AcDbEntity
  8
LAYER_1
  6
Continuous
 62
     1
100
AcDbPolyline
 90
       17
 70
   129
 43
0.0
 10
150.341
 20
1581.6
 10
160.594
 20
1582.32
 10
166.729
 20
1584.48
 10
169.7859999999999
 20
1587.7
 10
170.805
 20
1591.59
 10
169.782
 20
1595.49
 10
166.712
 20
1598.7
 10
160.573
 20
1600.87
 10
150.341
 20
1601.59
 10
140.067
 20
1600.87
 10
133.936
 20
1598.7
 10
130.892
 20
1595.47
 10
129.877
 20
1591.52
 10
130.773
 20
1587.72
 10
133.458
 20
1584.77
 10
139.964
 20
1582.39
 10
150.341
 20
1581.6
  0
LWPOLYLINE
  5
16AB
330
22
100
AcDbEntity
  8
LAYER_1
  6
Continuous
 62
     1
100
AcDbPolyline
 90
       21
 70
   129
 43
0.0
 10
150.341
 20
1614.14
 10
142.339
 20
1614.59
 10
136.068
 20
1615.96
 10
131.28
 20
1618.23
 10
127.729
 20
1621.38
 10
125.529
 20
1625.45
 10
124.795
 20
1630.44
 10
126.415
 20
1637.5
 10
131.088
 20
1642.51
 10
138.523
 20
1645.62
 10
150.341
 20
1646.74
 10
158.292
 20
1646.29
 10
164.546
 20
1644.94
 10
169.338
 20
1642.68
 10
172.902
 20
1639.53
 10
175.115
 20
1635.46
 10
175.853
 20
1630.44
 10
174.557
 20
1623.99
 10
170.668
 20
1619.08
 10
162.466
 20
1615.37
 10
150.341
 20
1614.14
  0
LWPOLYLINE
  5
16C2
330
22
100
AcDbEntity
  8
LAYER_1
  6
Continuous
 62
     1
100
AcDbPolyline
 90
       17
 70
   129
 43
0.0
 10
150.341
 20
1620.45
 10
160.594
 20
1621.17
 10
166.729
 20
1623.33
 10
169.7859999999999
 20
1626.55
 10
170.805
 20
1630.44
 10
169.782
 20
1634.33
 10
166.712
 20
1637.55
 10
160.573
 20
1639.71
 10
150.341
 20
1640.43
 10
140.067
 20
1639.71
 10
133.936
 20
1637.55
 10
130.892
 20
1634.32
 10
129.877
 20
1630.37
 10
130.773
 20
1626.57
 10
133.458
 20
1623.62
 10
139.964
 20
1621.24
 10
150.341
 20
1620.45
  0
LWPOLYLINE
  5
16D5
330
22
100
AcDbEntity
  8
LAYER_1
  6
Continuous
 62
     1
100
AcDbPolyline
 90
       36
 70
   129
 43
0.0
 10
175.0
 20
1654.69
 10
138.779
 20
1654.69
 10
138.779
 20
1660.18
 10
143.861
 20
1660.18
 10
139.58
 20
1664.72
 10
137.96
 20
1671.16
 10
139.632
 20
1677.76
 10
141.635
 20
1679.96
 10
144.304
 20
1681.39
 10
139.546
 20
1686.34
 10
137.96
 20
1692.58
 10
138.707
 20
1697.35
 10
140.945
 20
1700.87
 10
144.735
 20
1703.04
 10
150.136
 20
1703.77
 10
175.0
 20
1703.77
 10
175.0
 20
1697.66
 10
152.183
 20
1697.66
 10
146.879
 20
1697.07
 10
144.27
 20
1694.9
 10
143.281
 20
1691.22
 10
143.916
 20
1687.72
 10
145.822
 20
1684.87
 10
149.126
 20
1682.98
 10
153.956
 20
1682.35
 10
175.0
 20
1682.35
 10
175.0
 20
1676.21
 10
151.467
 20
1676.21
 10
145.327
 20
1674.71
 10
143.793
 20
1672.73
 10
143.281
 20
1669.8
 10
144.645
 20
1665.01
 10
148.636
 20
1661.82
 10
156.207
 20
1660.83
 10
175.0
 20
1660.83
 10
175.0
 20
1654.69
  0
LWPOLYLINE
  5
16FB
330
22
100
AcDbEntity
  8
LAYER_1
  6
Continuous
 62
     1
100
AcDbPolyline
 90
       36
 70
   129
 43
0.0
 10
175.0
 20
1712.88
 10
138.779
 20
1712.88
 10
138.779
 20
1718.37
 10
143.861
 20
1718.37
 10
139.58
 20
1722.9
 10
137.96
 20
1729.35
 10
139.632
 20
1735.95
 10
141.635
 20
1738.14
 10
144.304
 20
1739.58
 10
139.546
 20
1744.53
 10
137.96
 20
1750.77
 10
138.707
 20
1755.53
 10
140.945
 20
1759.06
 10
144.735
 20
1761.23
 10
150.136
 20
1761.95
 10
175.0
 20
1761.95
 10
175.0
 20
1755.85
 10
152.183
 20
1755.85
 10
146.879
 20
1755.25
 10
144.27
 20
1753.09
 10
143.281
 20
1749.4
 10
143.916
 20
1745.91
 10
145.822
 20
1743.06
 10
149.126
 20
1741.17
 10
153.956
 20
1740.54
 10
175.0
 20
1740.54
 10
175.0
 20
1734.4
 10
151.467
 20
1734.4
 10
145.327
 20
1732.9
 10
143.793
 20
1730.92
 10
143.281
 20
1727.98
 10
144.645
 20
1723.19
 10
148.636
 20
1720.0
 10
156.207
 20
1719.01
 10
175.0
 20
1719.01
 10
175.0
 20
1712.88
  0
LWPOLYLINE
  5
1721
330
22
100
AcDbEntity
  8
LAYER_1
  6
Continuous
 62
     7
100
AcDbPolyline
 90
        4
 70
   129
 43
0.0
 10
494.1489999999999
 20
1599.83
 10
484.909
 20
1638.75
 10
498.7779999999999
 20
1639.56
 10
494.1489999999999
 20
1599.83
  0
LINE
  5
1727
330
22
100
AcDbEntity
  8
LAYER_1
  6
Continuous
 62
     7
100
AcDbLine
 10
494.1489999999999
 20
1599.83
 30
0.0
 11
476.013
 21
1909.23
 31
0.0
  0
LINE
  5
1728
330
22
100
AcDbEntity
  8
LAYER_1
  6
Continuous
 62
     7
100
AcDbLine
 10
476.013
 20
1909.23
 30
0.0
 11
426.013
 21
1909.23
 31
0.0
  0
LWPOLYLINE
  5
1729
330
22
100
AcDbEntity
  8
LAYER_1
  6
Continuous
 62
     1
100
AcDbPolyline
 90
       24
 70
   129
 43
0.0
 10
6.640519999999999
 20
1884.23
 10
6.640519999999999
 20
1934.23
 10
28.8097
 20
1934.23
 10
38.9734
 20
1932.88
 10
42.1027
 20
1931.02
 10
44.53269999999999
 20
1928.13
 10
46.09309999999999
 20
1924.54
 10
46.61319999999999
 20
1920.59
 10
45.7521
 20
1915.68
 10
43.1685
 20
1911.62
 10
38.7858
 20
1908.63
 10
32.5273
 20
1906.98
 10
36.5177
 20
1904.49
 10
42.0089
 20
1897.84
 10
50.706
 20
1884.23
 10
42.38399999999999
 20
1884.23
 10
35.7674
 20
1894.63
 10
30.9925
 20
1901.52
 10
27.633
 20
1904.86
 10
24.6146
 20
1906.19
 10
20.9311
 20
1906.43
 10
13.2572
 20
1906.43
 10
13.2572
 20
1884.23
 10
6.640519999999999
 20
1884.23
  0
LWPOLYLINE
  5
1743
330
22
100
AcDbEntity
  8
LAYER_1
  6
Continuous
 62
     1
100
AcDbPolyline
 90
       11
 70
   129
 43
0.0
 10
13.2572
 20
1912.16
 10
27.4795
 20
1912.16
 10
34.5737
 20
1913.1
 10
38.4618
 20
1916.1
 10
39.792
 20
1920.59
 10
39.1482
 20
1923.82
 10
37.21690000000001
 20
1926.42
 10
33.8958
 20
1928.13
 10
29.0825
 20
1928.7
 10
13.2572
 20
1928.7
 10
13.2572
 20
1912.16
  0
LWPOLYLINE
  5
1750
330
22
100
AcDbEntity
  8
LAYER_1
  6
Continuous
 62
     1
100
AcDbPolyline
 90
       34
 70
   129
 43
0.0
 10
79.8329
 20
1888.7
 10
73.2674
 20
1884.61
 10
66.49729999999999
 20
1883.41
 10
61.21929999999999
 20
1884.14
 10
57.32269999999999
 20
1886.33
 10
54.9182
 20
1889.65
 10
54.1166
 20
1893.78
 10
55.3274
 20
1898.64
 10
58.4993
 20
1902.17
 10
62.9161
 20
1904.18
 10
68.37309999999999
 20
1905.1
 10
79.32129999999999
 20
1907.22
 10
79.3554
 20
1908.82
 10
78.92050000000001
 20
1912.02
 10
77.616
 20
1914.11
 10
74.69129999999999
 20
1915.67
 10
70.6242
 20
1916.19
 10
66.85970000000001
 20
1915.81
 10
64.22920000000001
 20
1914.67
 10
62.43439999999999
 20
1912.57
 10
61.1767
 20
1909.3
 10
55.1739
 20
1910.12
 10
57.8684
 20
1916.34
 10
63.2913
 20
1919.99
 10
71.5109
 20
1921.27
 10
79.0484
 20
1920.18
 10
83.3117
 20
1917.43
 10
85.2217
 20
1913.25
 10
85.5287
 20
1907.59
 10
85.5287
 20
1899.41
 10
85.9209
 20
1888.58
 10
87.4727
 20
1884.23
 10
81.0607
 20
1884.23
 10
79.8329
 20
1888.7
  0
LWPOLYLINE
  5
1774
330
22
100
AcDbEntity
  8
LAYER_1
  6
Continuous
 62
     1
100
AcDbPolyline
 90
       13
 70
   129
 43
0.0
 10
79.32129999999999
 20
1902.41
 10
69.294
 20
1900.09
 10
63.93930000000001
 20
1898.86
 10
61.51769999999999
 20
1896.87
 10
60.6651
 20
1893.95
 10
61.1298
 20
1891.7
 10
62.5239
 20
1889.86
 10
64.81329999999999
 20
1888.63
 10
67.96389999999999
 20
1888.22
 10
74.2735
 20
1889.77
 10
78.3322
 20
1894.02
 10
79.32129999999999
 20
1900.16
 10
79.32129999999999
 20
1902.41
  0
LWPOLYLINE
  5
1783
330
22
100
AcDbEntity
  8
LAYER_1
  6
Continuous
 62
     1
100
AcDbPolyline
 90
       21
 70
   129
 43
0.0
 10
118.544
 20
1884.23
 10
118.544
 20
1888.8
 10
114.289
 20
1884.76
 10
108.414
 20
1883.41
 10
104.257
 20
1884.01
 10
100.45
 20
1885.8
 10
97.2272
 20
1888.66
 10
94.82269999999999
 20
1892.47
 10
93.3262
 20
1897.07
 10
92.8274
 20
1902.31
 10
94.63509999999999
 20
1912.15
 10
96.8946
 20
1916.05
 10
100.058
 20
1918.92
 10
103.886
 20
1920.68
 10
108.141
 20
1921.27
 10
113.973
 20
1919.89
 10
118.134
 20
1916.29
 10
118.134
 20
1934.23
 10
124.239
 20
1934.23
 10
124.239
 20
1884.23
 10
118.544
 20
1884.23
  0
LWPOLYLINE
  5
179A
330
22
100
AcDbEntity
  8
LAYER_1
  6
Continuous
 62
     1
100
AcDbPolyline
 90
       17
 70
   129
 43
0.0
 10
99.13710000000001
 20
1902.31
 10
99.8704
 20
1896.23
 10
102.07
 20
1891.9
 10
105.268
 20
1889.32
 10
108.994
 20
1888.46
 10
112.716
 20
1889.28
 10
115.832
 20
1891.75
 10
117.943
 20
1895.91
 10
118.646
 20
1901.79
 10
117.93
 20
1908.24
 10
115.781
 20
1912.71
 10
112.584
 20
1915.32
 10
108.721
 20
1916.19
 10
104.965
 20
1915.35
 10
101.883
 20
1912.85
 10
99.8235
 20
1908.54
 10
99.13710000000001
 20
1902.31
  0
LWPOLYLINE
  5
17AD
330
22
100
AcDbEntity
  8
LAYER_1
  6
Continuous
 62
     1
100
AcDbPolyline
 90
        5
 70
   129
 43
0.0
 10
135.631
 20
1884.23
 10
135.631
 20
1891.22
 10
142.623
 20
1891.22
 10
142.623
 20
1884.23
 10
135.631
 20
1884.23
  0
LWPOLYLINE
  5
17B4
330
22
100
AcDbEntity
  8
LAYER_1
  6
Continuous
 62
     1
100
AcDbPolyline
 90
       10
 70
   129
 43
0.0
 10
194.123
 20
1884.23
 10
187.984
 20
1884.23
 10
187.984
 20
1923.35
 10
182.169
 20
1919.12
 10
175.706
 20
1915.95
 10
175.706
 20
1921.88
 10
184.71
 20
1927.75
 10
190.167
 20
1934.43
 10
194.123
 20
1934.43
 10
194.123
 20
1884.23
  0
LWPOLYLINE
  5
17C0
330
22
100
AcDbEntity
  8
LAYER_1
  6
Continuous
 62
     1
100
AcDbPolyline
 90
       21
 70
   129
 43
0.0
 10
209.847
 20
1908.89
 10
210.303
 20
1916.89
 10
211.671
 20
1923.16
 10
213.939
 20
1927.95
 10
217.094
 20
1931.5
 10
221.157
 20
1933.7
 10
226.149
 20
1934.43
 10
233.209
 20
1932.81
 10
238.223
 20
1928.14
 10
241.327
 20
1920.71
 10
242.452
 20
1908.89
 10
242.0
 20
1900.94
 10
240.645
 20
1894.68
 10
238.389
 20
1889.89
 10
235.239
 20
1886.33
 10
231.167
 20
1884.12
 10
226.149
 20
1883.38
 10
219.695
 20
1884.67
 10
214.792
 20
1888.56
 10
211.083
 20
1896.76
 10
209.847
 20
1908.89
  0
LWPOLYLINE
  5
17D7
330
22
100
AcDbEntity
  8
LAYER_1
  6
Continuous
 62
     1
100
AcDbPolyline
 90
       17
 70
   129
 43
0.0
 10
216.156
 20
1908.89
 10
216.877
 20
1898.64
 10
219.038
 20
1892.5
 10
222.257
 20
1889.44
 10
226.149
 20
1888.43
 10
230.042
 20
1889.45
 10
233.261
 20
1892.52
 10
235.422
 20
1898.66
 10
236.143
 20
1908.89
 10
235.422
 20
1919.16
 10
233.261
 20
1925.29
 10
230.025
 20
1928.34
 10
226.081
 20
1929.35
 10
222.278
 20
1928.46
 10
219.328
 20
1925.77
 10
216.949
 20
1919.27
 10
216.156
 20
1908.89
  0
LWPOLYLINE
  5
17EA
330
22
100
AcDbEntity
  8
LAYER_1
  6
Continuous
 62
     1
100
AcDbPolyline
 90
       21
 70
   129
 43
0.0
 10
248.694
 20
1908.89
 10
249.15
 20
1916.89
 10
250.518
 20
1923.16
 10
252.786
 20
1927.95
 10
255.941
 20
1931.5
 10
260.004
 20
1933.7
 10
264.997
 20
1934.43
 10
272.057
 20
1932.81
 10
277.07
 20
1928.14
 10
280.174
 20
1920.71
 10
281.299
 20
1908.89
 10
280.848
 20
1900.94
 10
279.492
 20
1894.68
 10
277.237
 20
1889.89
 10
274.086
 20
1886.33
 10
270.015
 20
1884.12
 10
264.997
 20
1883.38
 10
258.542
 20
1884.67
 10
253.639
 20
1888.56
 10
249.93
 20
1896.76
 10
248.694
 20
1908.89
  0
LWPOLYLINE
  5
1801
330
22
100
AcDbEntity
  8
LAYER_1
  6
Continuous
 62
     1
100
AcDbPolyline
 90
       17
 70
   129
 43
0.0
 10
255.003
 20
1908.89
 10
255.724
 20
1898.64
 10
257.885
 20
1892.5
 10
261.104
 20
1889.44
 10
264.997
 20
1888.43
 10
268.889
 20
1889.45
 10
272.108
 20
1892.52
 10
274.269
 20
1898.66
 10
274.99
 20
1908.89
 10
274.269
 20
1919.16
 10
272.108
 20
1925.29
 10
268.872
 20
1928.34
 10
264.928
 20
1929.35
 10
261.126
 20
1928.46
 10
258.175
 20
1925.77
 10
255.796
 20
1919.27
 10
255.003
 20
1908.89
  0
LWPOLYLINE
  5
1814
330
22
100
AcDbEntity
  8
LAYER_1
  6
Continuous
 62
     1
100
AcDbPolyline
 90
       36
 70
   129
 43
0.0
 10
289.246
 20
1884.23
 10
289.246
 20
1920.45
 10
294.737
 20
1920.45
 10
294.737
 20
1915.37
 10
299.274
 20
1919.65
 10
305.72
 20
1921.27
 10
312.319
 20
1919.6
 10
314.515
 20
1917.59
 10
315.952
 20
1914.93
 10
320.897
 20
1919.68
 10
327.138
 20
1921.27
 10
331.905
 20
1920.52
 10
335.426
 20
1918.29
 10
337.601
 20
1914.5
 10
338.325
 20
1909.09
 10
338.325
 20
1884.23
 10
332.22
 20
1884.23
 10
332.22
 20
1907.05
 10
331.623
 20
1912.35
 10
329.458
 20
1914.96
 10
325.774
 20
1915.95
 10
322.278
 20
1915.31
 10
319.43
 20
1913.41
 10
317.538
 20
1910.1
 10
316.907
 20
1905.27
 10
316.907
 20
1884.23
 10
310.767
 20
1884.23
 10
310.767
 20
1907.76
 10
309.267
 20
1913.9
 10
307.289
 20
1915.44
 10
304.355
 20
1915.95
 10
299.563
 20
1914.58
 10
296.3740000000001
 20
1910.59
 10
295.385
 20
1903.02
 10
295.385
 20
1884.23
 10
289.246
 20
1884.23
  0
LWPOLYLINE
  5
183A
330
22
100
AcDbEntity
  8
LAYER_1
  6
Continuous
 62
     1
100
AcDbPolyline
 90
       36
 70
   129
 43
0.0
 10
347.432
 20
1884.23
 10
347.432
 20
1920.45
 10
352.923
 20
1920.45
 10
352.923
 20
1915.37
 10
357.459
 20
1919.65
 10
363.905
 20
1921.27
 10
370.505
 20
1919.6
 10
372.7
 20
1917.59
 10
374.1369999999999
 20
1914.93
 10
379.083
 20
1919.68
 10
385.324
 20
1921.27
 10
390.09
 20
1920.52
 10
393.612
 20
1918.29
 10
395.786
 20
1914.5
 10
396.511
 20
1909.09
 10
396.511
 20
1884.23
 10
390.406
 20
1884.23
 10
390.406
 20
1907.05
 10
389.809
 20
1912.35
 10
387.643
 20
1914.96
 10
383.96
 20
1915.95
 10
380.464
 20
1915.31
 10
377.616
 20
1913.41
 10
375.723
 20
1910.1
 10
375.092
 20
1905.27
 10
375.092
 20
1884.23
 10
368.953
 20
1884.23
 10
368.953
 20
1907.76
 10
367.452
 20
1913.9
 10
365.474
 20
1915.44
 10
362.541
 20
1915.95
 10
357.749
 20
1914.58
 10
354.56
 20
1910.59
 10
353.571
 20
1903.02
 10
353.571
 20
1884.23
 10
347.432
 20
1884.23
  0
LWPOLYLINE
  5
1860
330
22
100
AcDbEntity
  8
LAYER_1
  6
Continuous
 62
     7
100
AcDbPolyline
 90
        4
 70
   129
 43
0.0
 10
274.684
 20
669.3039999999999
 10
304.673
 20
642.835
 10
293.812
 20
634.1739999999999
 10
274.684
 20
669.3039999999999
  0
LINE
  5
1866
330
22
100
AcDbEntity
  8
LAYER_1
  6
Continuous
 62
     7
100
AcDbLine
 10
274.684
 20
669.3039999999999
 30
0.0
 11
363.695
 21
557.674
 31
0.0
  0
LINE
  5
1867
330
22
100
AcDbEntity
  8
LAYER_1
  6
Continuous
 62
     7
100
AcDbLine
 10
363.695
 20
557.674
 30
0.0
 11
413.6949999999999
 21
557.674
 31
0.0
  0
LWPOLYLINE
  5
1868
330
22
100
AcDbEntity
  8
LAYER_1
  6
Continuous
 62
     1
100
AcDbPolyline
 90
       24
 70
   129
 43
0.0
 10
444.186
 20
532.674
 10
444.186
 20
582.674
 10
466.356
 20
582.674
 10
476.519
 20
581.327
 10
479.649
 20
579.464
 10
482.079
 20
576.5689999999999
 10
483.639
 20
572.979
 10
484.159
 20
569.0319999999998
 10
483.298
 20
564.129
 10
480.714
 20
560.062
 10
476.332
 20
557.077
 10
470.073
 20
555.423
 10
474.0639999999999
 20
552.9329999999999
 10
479.555
 20
546.283
 10
488.2519999999999
 20
532.674
 10
479.93
 20
532.674
 10
473.313
 20
543.0769999999999
 10
468.538
 20
549.966
 10
465.179
 20
553.3089999999999
 10
462.161
 20
554.639
 10
458.4769999999999
 20
554.878
 10
450.803
 20
554.878
 10
450.803
 20
532.674
 10
444.186
 20
532.674
  0
LWPOLYLINE
  5
1882
330
22
100
AcDbEntity
  8
LAYER_1
  6
Continuous
 62
     1
100
AcDbPolyline
 90
       11
 70
   129
 43
0.0
 10
450.803
 20
560.6069999999999
 10
465.0249999999999
 20
560.6069999999999
 10
472.12
 20
561.545
 10
476.008
 20
564.547
 10
477.338
 20
569.0319999999998
 10
476.6939999999999
 20
572.263
 10
474.763
 20
574.864
 10
471.4419999999999
 20
576.5779999999999
 10
466.628
 20
577.149
 10
450.803
 20
577.149
 10
450.803
 20
560.6069999999999
  0
LWPOLYLINE
  5
188F
330
22
100
AcDbEntity
  8
LAYER_1
  6
Continuous
 62
     1
100
AcDbPolyline
 90
       34
 70
   129
 43
0.0
 10
517.379
 20
537.1419999999999
 10
510.813
 20
533.049
 10
504.0429999999999
 20
531.8559999999999
 10
498.765
 20
532.585
 10
494.869
 20
534.7719999999999
 10
492.464
 20
538.0930000000001
 10
491.663
 20
542.224
 10
492.873
 20
547.084
 10
496.045
 20
550.614
 10
500.462
 20
552.6259999999999
 10
505.919
 20
553.547
 10
516.8669999999999
 20
555.6619999999999
 10
516.9009999999999
 20
557.265
 10
516.466
 20
560.4619999999999
 10
515.1619999999999
 20
562.5509999999999
 10
512.237
 20
564.1119999999999
 10
508.17
 20
564.6319999999999
 10
504.4059999999999
 20
564.253
 10
501.7749999999999
 20
563.114
 10
499.98
 20
561.0119999999999
 10
498.723
 20
557.742
 10
492.72
 20
558.561
 10
495.4139999999999
 20
564.785
 10
500.837
 20
568.4349999999999
 10
509.0569999999999
 20
569.714
 10
516.594
 20
568.6219999999999
 10
520.858
 20
565.8769999999999
 10
522.768
 20
561.699
 10
523.075
 20
556.0369999999998
 10
523.075
 20
547.8519999999999
 10
523.467
 20
537.023
 10
525.0189999999999
 20
532.674
 10
518.6069999999999
 20
532.674
 10
517.379
 20
537.1419999999999
  0
LWPOLYLINE
  5
18B3
330
22
100
AcDbEntity
  8
LAYER_1
  6
Continuous
 62
     1
100
AcDbPolyline
 90
       13
 70
   129
 43
0.0
 10
516.8669999999999
 20
550.853
 10
506.8399999999999
 20
548.5339999999999
 10
501.485
 20
547.306
 10
499.0639999999999
 20
545.311
 10
498.211
 20
542.3949999999999
 10
498.676
 20
540.144
 10
500.07
 20
538.302
 10
502.359
 20
537.074
 10
505.51
 20
536.6649999999999
 10
511.819
 20
538.217
 10
515.878
 20
542.463
 10
516.8669999999999
 20
548.6019999999999
 10
516.8669999999999
 20
550.853
  0
LWPOLYLINE
  5
18C2
330
22
100
AcDbEntity
  8
LAYER_1
  6
Continuous
 62
     1
100
AcDbPolyline
 90
       21
 70
   129
 43
0.0
 10
556.09
 20
532.674
 10
556.09
 20
537.244
 10
551.835
 20
533.2029999999999
 10
545.96
 20
531.8559999999999
 10
541.8029999999999
 20
532.453
 10
537.9959999999999
 20
534.243
 10
534.773
 20
537.104
 10
532.369
 20
540.9109999999999
 10
530.872
 20
545.5109999999999
 10
530.373
 20
550.7509999999999
 10
532.181
 20
560.59
 10
534.441
 20
564.491
 10
537.604
 20
567.36
 10
541.432
 20
569.125
 10
545.687
 20
569.714
 10
551.519
 20
568.332
 10
555.6799999999999
 20
564.734
 10
555.6799999999999
 20
582.674
 10
561.7849999999999
 20
582.674
 10
561.7849999999999
 20
532.674
 10
556.09
 20
532.674
  0
LWPOLYLINE
  5
18D9
330
22
100
AcDbEntity
  8
LAYER_1
  6
Continuous
 62
     1
100
AcDbPolyline
 90
       17
 70
   129
 43
0.0
 10
536.683
 20
550.7509999999999
 10
537.4159999999999
 20
544.6709999999999
 10
539.616
 20
540.348
 10
542.8139999999999
 20
537.765
 10
546.5399999999999
 20
536.903
 10
550.2619999999999
 20
537.7259999999999
 10
553.378
 20
540.195
 10
555.488
 20
544.3509999999999
 10
556.1919999999999
 20
550.239
 10
555.4759999999999
 20
556.6849999999999
 10
553.3269999999999
 20
561.153
 10
550.129
 20
563.7619999999999
 10
546.2669999999999
 20
564.6319999999999
 10
542.511
 20
563.7959999999999
 10
539.4289999999999
 20
561.2899999999999
 10
537.369
 20
556.984
 10
536.683
 20
550.7509999999999
  0
LWPOLYLINE
  5
18EC
330
22
100
AcDbEntity
  8
LAYER_1
  6
Continuous
 62
     1
100
AcDbPolyline
 90
        5
 70
   129
 43
0.0
 10
573.177
 20
532.674
 10
573.177
 20
539.6659999999999
 10
580.1689999999999
 20
539.6659999999999
 10
580.1689999999999
 20
532.674
 10
573.177
 20
532.674
  0
LWPOLYLINE
  5
18F3
330
22
100
AcDbEntity
  8
LAYER_1
  6
Continuous
 62
     1
100
AcDbPolyline
 90
       35
 70
   129
 43
0.0
 10
640.4009999999999
 20
570.4299999999999
 10
634.2959999999999
 20
569.953
 10
631.976
 20
575.205
 10
629.197
 20
577.1749999999999
 10
625.837
 20
577.831
 10
620.687
 20
576.194
 10
618.095
 20
573.593
 10
616.1169999999999
 20
570.0209999999999
 10
614.846
 20
565.101
 10
614.3769999999999
 20
558.459
 10
619.7999999999999
 20
563.4719999999999
 10
626.519
 20
565.109
 10
632.202
 20
563.98
 10
636.973
 20
560.59
 10
640.2090000000001
 20
555.41
 10
641.2869999999998
 20
548.909
 10
640.7799999999999
 20
544.368
 10
639.258
 20
540.1609999999999
 10
636.849
 20
536.592
 10
633.682
 20
533.97
 10
629.896
 20
532.359
 10
625.633
 20
531.822
 10
618.6659999999999
 20
533.233
 10
613.1149999999999
 20
537.466
 10
609.483
 20
544.94
 10
608.2719999999999
 20
556.071
 10
609.611
 20
568.588
 10
611.284
 20
573.363
 10
613.6269999999999
 20
577.149
 10
619.11
 20
581.446
 10
626.212
 20
582.879
 10
631.58
 20
582.052
 10
635.8819999999999
 20
579.571
 10
638.8959999999999
 20
575.631
 10
640.4009999999999
 20
570.4299999999999
  0
LWPOLYLINE
  5
1918
330
22
100
AcDbEntity
  8
LAYER_1
  6
Continuous
 62
     1
100
AcDbPolyline
 90
       16
 70
   129
 43
0.0
 10
615.3319999999999
 20
548.875
 10
616.6799999999999
 20
542.804
 10
620.448
 20
538.3869999999999
 10
625.53
 20
536.8689999999999
 10
629.1459999999999
 20
537.654
 10
632.215
 20
540.0069999999999
 10
634.313
 20
543.708
 10
635.0119999999999
 20
548.5339999999999
 10
634.321
 20
553.168
 10
632.249
 20
556.702
 10
629.128
 20
558.94
 10
625.2909999999999
 20
559.687
 10
621.446
 20
558.94
 10
618.231
 20
556.702
 10
616.0569999999999
 20
553.253
 10
615.3319999999999
 20
548.875
  0
LWPOLYLINE
  5
192A
330
22
100
AcDbEntity
  8
LAYER_1
  6
Continuous
 62
     1
100
AcDbPolyline
 90
       21
 70
   129
 43
0.0
 10
647.3919999999999
 20
557.3330000000001
 10
647.849
 20
565.335
 10
649.2169999999999
 20
571.607
 10
651.485
 20
576.3939999999999
 10
654.64
 20
579.946
 10
658.7029999999999
 20
582.146
 10
663.695
 20
582.879
 10
670.755
 20
581.259
 10
675.7689999999999
 20
576.5859999999999
 10
678.8730000000001
 20
569.151
 10
679.998
 20
557.3330000000001
 10
679.546
 20
549.3819999999999
 10
678.191
 20
543.128
 10
675.9349999999999
 20
538.336
 10
672.785
 20
534.7719999999999
 10
668.713
 20
532.559
 10
663.695
 20
531.822
 10
657.2410000000001
 20
533.118
 10
652.3380000000001
 20
537.0059999999999
 10
648.629
 20
545.2080000000001
 10
647.3919999999999
 20
557.3330000000001
  0
LWPOLYLINE
  5
1941
330
22
100
AcDbEntity
  8
LAYER_1
  6
Continuous
 62
     1
100
AcDbPolyline
 90
       17
 70
   129
 43
0.0
 10
653.702
 20
557.3330000000001
 10
654.4229999999999
 20
547.08
 10
656.5839999999999
 20
540.945
 10
659.803
 20
537.888
 10
663.695
 20
536.8689999999999
 10
667.5880000000001
 20
537.893
 10
670.806
 20
540.962
 10
672.968
 20
547.1009999999999
 10
673.688
 20
557.3330000000001
 10
672.968
 20
567.608
 10
670.806
 20
573.738
 10
667.571
 20
576.7819999999999
 10
663.6269999999999
 20
577.797
 10
659.8239999999999
 20
576.9019999999999
 10
656.8739999999999
 20
574.216
 10
654.495
 20
567.71
 10
653.702
 20
557.3330000000001
  0
LWPOLYLINE
  5
1954
330
22
100
AcDbEntity
  8
LAYER_1
  6
Continuous
 62
     1
100
AcDbPolyline
 90
       21
 70
   129
 43
0.0
 10
686.24
 20
557.3330000000001
 10
686.696
 20
565.335
 10
688.0639999999999
 20
571.607
 10
690.3319999999999
 20
576.3939999999999
 10
693.487
 20
579.946
 10
697.5499999999999
 20
582.146
 10
702.543
 20
582.879
 10
709.603
 20
581.259
 10
714.616
 20
576.5859999999999
 10
717.72
 20
569.151
 10
718.845
 20
557.3330000000001
 10
718.393
 20
549.3819999999999
 10
717.038
 20
543.128
 10
714.7819999999999
 20
538.336
 10
711.6319999999999
 20
534.7719999999999
 10
707.5599999999999
 20
532.559
 10
702.543
 20
531.822
 10
696.0880000000001
 20
533.118
 10
691.1849999999999
 20
537.0059999999999
 10
687.4760000000001
 20
545.2080000000001
 10
686.24
 20
557.3330000000001
  0
LWPOLYLINE
  5
196B
330
22
100
AcDbEntity
  8
LAYER_1
  6
Continuous
 62
     1
100
AcDbPolyline
 90
       17
 70
   129
 43
0.0
 10
692.5489999999999
 20
557.3330000000001
 10
693.2699999999999
 20
547.08
 10
695.431
 20
540.945
 10
698.6499999999999
 20
537.888
 10
702.543
 20
536.8689999999999
 10
706.4349999999999
 20
537.893
 10
709.654
 20
540.962
 10
711.815
 20
547.1009999999999
 10
712.536
 20
557.3330000000001
 10
711.815
 20
567.608
 10
709.654
 20
573.738
 10
706.418
 20
576.7819999999999
 10
702.4739999999999
 20
577.797
 10
698.671
 20
576.9019999999999
 10
695.7209999999999
 20
574.216
 10
693.3419999999999
 20
567.71
 10
692.5489999999999
 20
557.3330000000001
  0
LWPOLYLINE
  5
197E
330
22
100
AcDbEntity
  8
LAYER_1
  6
Continuous
 62
     1
100
AcDbPolyline
 90
       36
 70
   129
 43
0.0
 10
726.7919999999999
 20
532.674
 10
726.7919999999999
 20
568.895
 10
732.283
 20
568.895
 10
732.283
 20
563.813
 10
736.8189999999999
 20
568.094
 10
743.2660000000001
 20
569.714
 10
749.865
 20
568.043
 10
752.061
 20
566.0389999999999
 10
753.4969999999999
 20
563.37
 10
758.443
 20
568.128
 10
764.684
 20
569.714
 10
769.451
 20
568.968
 10
772.972
 20
566.729
 10
775.1469999999999
 20
562.9389999999999
 10
775.8710000000001
 20
557.538
 10
775.8710000000001
 20
532.674
 10
769.766
 20
532.674
 10
769.766
 20
555.4909999999999
 10
769.169
 20
560.7949999999999
 10
767.0039999999999
 20
563.4039999999999
 10
763.32
 20
564.393
 10
759.8239999999999
 20
563.758
 10
756.9760000000001
 20
561.852
 10
755.0830000000001
 20
558.548
 10
754.452
 20
553.7180000000001
 10
754.452
 20
532.674
 10
748.313
 20
532.674
 10
748.313
 20
556.208
 10
746.813
 20
562.347
 10
744.8339999999999
 20
563.8819999999999
 10
741.901
 20
564.393
 10
737.1089999999999
 20
563.029
 10
733.9199999999999
 20
559.038
 10
732.931
 20
551.4669999999999
 10
732.931
 20
532.674
 10
726.7919999999999
 20
532.674
  0
LWPOLYLINE
  5
19A4
330
22
100
AcDbEntity
  8
LAYER_1
  6
Continuous
 62
     1
100
AcDbPolyline
 90
       36
 70
   129
 43
0.0
 10
784.978
 20
532.674
 10
784.978
 20
568.895
 10
790.4689999999999
 20
568.895
 10
790.4689999999999
 20
563.813
 10
795.005
 20
568.094
 10
801.4509999999999
 20
569.714
 10
808.051
 20
568.043
 10
810.246
 20
566.0389999999999
 10
811.683
 20
563.37
 10
816.628
 20
568.128
 10
822.8699999999999
 20
569.714
 10
827.636
 20
568.968
 10
831.1580000000001
 20
566.729
 10
833.332
 20
562.9389999999999
 10
834.0569999999999
 20
557.538
 10
834.0569999999999
 20
532.674
 10
827.9519999999999
 20
532.674
 10
827.9519999999999
 20
555.4909999999999
 10
827.355
 20
560.7949999999999
 10
825.1889999999999
 20
563.4039999999999
 10
821.5060000000001
 20
564.393
 10
818.0099999999999
 20
563.758
 10
815.1619999999999
 20
561.852
 10
813.2689999999998
 20
558.548
 10
812.6380000000001
 20
553.7180000000001
 10
812.6380000000001
 20
532.674
 10
806.4989999999999
 20
532.674
 10
806.4989999999999
 20
556.208
 10
804.9980000000001
 20
562.347
 10
803.02
 20
563.8819999999999
 10
800.087
 20
564.393
 10
795.2949999999999
 20
563.029
 10
792.1060000000001
 20
559.038
 10
791.1169999999999
 20
551.4669999999999
 10
791.1169999999999
 20
532.674
 10
784.978
 20
532.674
  0
LINE
  5
19CA
330
22
100
AcDbEntity
  8
LAYER_1
  6
Continuous
 62
     7
100
AcDbLine
 10
1900.0
 20
900.0
 30
0.0
 11
2209.45
 21
580.138
 31
0.0
  0
LINE
  5
19CB
330
22
100
AcDbEntity
  8
LAYER_1
  6
Continuous
 62
     7
100
AcDbLine
 10
2209.45
 20
580.138
 30
0.0
 11
2259.45
 21
580.138
 31
0.0
  0
LWPOLYLINE
  5
19CC
330
22
100
AcDbEntity
  8
LAYER_1
  6
Continuous
 62
     7
100
AcDbPolyline
 90
        4
 70
   129
 43
0.0
 10
2178.12
 20
612.516
 10
2145.74
 20
635.998
 10
2155.73
 20
645.658
 10
2178.12
 20
612.516
  0
LWPOLYLINE
  5
19D2
330
22
100
AcDbEntity
  8
LAYER_1
  6
Continuous
 62
     1
100
AcDbPolyline
 90
       24
 70
   129
 43
0.0
 10
2289.94
 20
555.138
 10
2289.94
 20
605.138
 10
2312.11
 20
605.138
 10
2322.27
 20
603.7909999999999
 10
2325.4
 20
601.927
 10
2327.83
 20
599.033
 10
2329.39
 20
595.443
 10
2329.91
 20
591.495
 10
2329.05
 20
586.592
 10
2326.47
 20
582.5249999999999
 10
2322.09
 20
579.5409999999999
 10
2315.83
 20
577.8869999999999
 10
2319.82
 20
575.3969999999999
 10
2325.31
 20
568.7459999999999
 10
2334.010000000001
 20
555.138
 10
2325.68
 20
555.138
 10
2319.07
 20
565.5399999999999
 10
2314.29
 20
572.4299999999999
 10
2310.93
 20
575.7719999999999
 10
2307.91
 20
577.102
 10
2304.23
 20
577.341
 10
2296.56
 20
577.341
 10
2296.56
 20
555.138
 10
2289.94
 20
555.138
  0
LWPOLYLINE
  5
19EC
330
22
100
AcDbEntity
  8
LAYER_1
  6
Continuous
 62
     1
100
AcDbPolyline
 90
       11
 70
   129
 43
0.0
 10
2296.56
 20
583.071
 10
2310.78
 20
583.071
 10
2317.87
 20
584.009
 10
2321.76
 20
587.0099999999999
 10
2323.09
 20
591.495
 10
2322.45
 20
594.7269999999999
 10
2320.52
 20
597.327
 10
2317.2
 20
599.0409999999999
 10
2312.38
 20
599.613
 10
2296.56
 20
599.613
 10
2296.56
 20
583.071
  0
LWPOLYLINE
  5
19F9
330
22
100
AcDbEntity
  8
LAYER_1
  6
Continuous
 62
     1
100
AcDbPolyline
 90
       34
 70
   129
 43
0.0
 10
2363.13
 20
559.606
 10
2356.57
 20
555.513
 10
2349.8
 20
554.319
 10
2344.52
 20
555.048
 10
2340.62
 20
557.235
 10
2338.22
 20
560.556
 10
2337.42
 20
564.688
 10
2338.63
 20
569.5479999999999
 10
2341.8
 20
573.078
 10
2346.22
 20
575.09
 10
2351.67
 20
576.011
 10
2362.62
 20
578.125
 10
2362.65
 20
579.728
 10
2362.22
 20
582.9259999999999
 10
2360.92
 20
585.015
 10
2357.99
 20
586.575
 10
2353.92
 20
587.095
 10
2350.16
 20
586.716
 10
2347.53
 20
585.578
 10
2345.73
 20
583.476
 10
2344.48
 20
580.2059999999999
 10
2338.47
 20
581.0249999999999
 10
2341.17
 20
587.2489999999999
 10
2346.59
 20
590.898
 10
2354.81
 20
592.177
 10
2362.35
 20
591.086
 10
2366.61
 20
588.34
 10
2368.52
 20
584.1619999999998
 10
2368.83
 20
578.5009999999999
 10
2368.83
 20
570.315
 10
2369.22
 20
559.4859999999999
 10
2370.77
 20
555.138
 10
2364.36
 20
555.138
 10
2363.13
 20
559.606
  0
LWPOLYLINE
  5
1A1D
330
22
100
AcDbEntity
  8
LAYER_1
  6
Continuous
 62
     1
100
AcDbPolyline
 90
       13
 70
   129
 43
0.0
 10
2362.62
 20
573.316
 10
2352.590000000001
 20
570.9969999999999
 10
2347.24
 20
569.769
 10
2344.82
 20
567.774
 10
2343.96
 20
564.858
 10
2344.43
 20
562.6069999999999
 10
2345.82
 20
560.7649999999999
 10
2348.11
 20
559.5369999999999
 10
2351.26
 20
559.128
 10
2357.57
 20
560.6799999999999
 10
2361.63
 20
564.9259999999999
 10
2362.62
 20
571.065
 10
2362.62
 20
573.316
  0
LWPOLYLINE
  5
1A2C
330
22
100
AcDbEntity
  8
LAYER_1
  6
Continuous
 62
     1
100
AcDbPolyline
 90
       21
 70
   129
 43
0.0
 10
2401.84
 20
555.138
 10
2401.84
 20
559.708
 10
2397.59
 20
555.6659999999999
 10
2391.71
 20
554.319
 10
2387.56
 20
554.9159999999999
 10
2383.75
 20
556.707
 10
2380.53
 20
559.567
 10
2378.12
 20
563.374
 10
2376.63
 20
567.975
 10
2376.13
 20
573.214
 10
2377.93
 20
583.054
 10
2380.19
 20
586.955
 10
2383.36
 20
589.824
 10
2387.19
 20
591.589
 10
2391.44
 20
592.177
 10
2397.27
 20
590.7959999999999
 10
2401.43
 20
587.1979999999999
 10
2401.43
 20
605.138
 10
2407.54
 20
605.138
 10
2407.54
 20
555.138
 10
2401.84
 20
555.138
  0
LWPOLYLINE
  5
1A43
330
22
100
AcDbEntity
  8
LAYER_1
  6
Continuous
 62
     1
100
AcDbPolyline
 90
       17
 70
   129
 43
0.0
 10
2382.44
 20
573.214
 10
2383.17
 20
567.135
 10
2385.37
 20
562.812
 10
2388.57
 20
560.228
 10
2392.29
 20
559.3669999999999
 10
2396.02
 20
560.19
 10
2399.13
 20
562.658
 10
2401.24
 20
566.815
 10
2401.95
 20
572.703
 10
2401.23
 20
579.149
 10
2399.08
 20
583.617
 10
2395.88
 20
586.226
 10
2392.02
 20
587.095
 10
2388.26
 20
586.2599999999999
 10
2385.18
 20
583.753
 10
2383.12
 20
579.447
 10
2382.44
 20
573.214
  0
LWPOLYLINE
  5
1A56
330
22
100
AcDbEntity
  8
LAYER_1
  6
Continuous
 62
     1
100
AcDbPolyline
 90
        5
 70
   129
 43
0.0
 10
2418.93
 20
555.138
 10
2418.93
 20
562.1299999999999
 10
2425.92
 20
562.1299999999999
 10
2425.92
 20
555.138
 10
2418.93
 20
555.138
  0
LWPOLYLINE
  5
1A5D
330
22
100
AcDbEntity
  8
LAYER_1
  6
Continuous
 62
     1
100
AcDbPolyline
 90
       12
 70
   129
 43
0.0
 10
2473.98
 20
555.138
 10
2473.98
 20
567.109
 10
2452.29
 20
567.109
 10
2452.29
 20
572.7369999999999
 10
2475.1
 20
605.138
 10
2480.12
 20
605.138
 10
2480.12
 20
572.7369999999999
 10
2486.87
 20
572.7369999999999
 10
2486.87
 20
567.109
 10
2480.12
 20
567.109
 10
2480.12
 20
555.138
 10
2473.98
 20
555.138
  0
LWPOLYLINE
  5
1A6B
330
22
100
AcDbEntity
  8
LAYER_1
  6
Continuous
 62
     1
100
AcDbPolyline
 90
        4
 70
   129
 43
0.0
 10
2473.98
 20
572.7369999999999
 10
2473.98
 20
595.2809999999999
 10
2458.32
 20
572.7369999999999
 10
2473.98
 20
572.7369999999999
  0
LWPOLYLINE
  5
1A71
330
22
100
AcDbEntity
  8
LAYER_1
  6
Continuous
 62
     1
100
AcDbPolyline
 90
       21
 70
   129
 43
0.0
 10
2493.15
 20
579.797
 10
2493.6
 20
587.7989999999999
 10
2494.97
 20
594.07
 10
2497.24
 20
598.858
 10
2500.39
 20
602.409
 10
2504.46
 20
604.609
 10
2509.45
 20
605.342
 10
2516.51
 20
603.7219999999999
 10
2521.52
 20
599.0499999999999
 10
2524.63
 20
591.615
 10
2525.75
 20
579.797
 10
2525.3
 20
571.846
 10
2523.94
 20
565.591
 10
2521.69
 20
560.799
 10
2518.54
 20
557.235
 10
2514.47
 20
555.0229999999999
 10
2509.45
 20
554.2849999999999
 10
2502.99
 20
555.581
 10
2498.09
 20
559.469
 10
2494.38
 20
567.672
 10
2493.15
 20
579.797
  0
LWPOLYLINE
  5
1A88
330
22
100
AcDbEntity
  8
LAYER_1
  6
Continuous
 62
     1
100
AcDbPolyline
 90
       17
 70
   129
 43
0.0
 10
2499.46
 20
579.797
 10
2500.18
 20
569.5429999999999
 10
2502.34
 20
563.4089999999999
 10
2505.56
 20
560.3519999999999
 10
2509.45
 20
559.333
 10
2513.34
 20
560.3559999999999
 10
2516.56
 20
563.4259999999999
 10
2518.72
 20
569.565
 10
2519.44
 20
579.797
 10
2518.72
 20
590.071
 10
2516.56
 20
596.2019999999999
 10
2513.32
 20
599.246
 10
2509.38
 20
600.2609999999999
 10
2505.58
 20
599.365
 10
2502.63
 20
596.6789999999999
 10
2500.25
 20
590.174
 10
2499.46
 20
579.797
  0
LWPOLYLINE
  5
1A9B
330
22
100
AcDbEntity
  8
LAYER_1
  6
Continuous
 62
     1
100
AcDbPolyline
 90
       21
 70
   129
 43
0.0
 10
2531.99
 20
579.797
 10
2532.45
 20
587.7989999999999
 10
2533.82
 20
594.07
 10
2536.09
 20
598.858
 10
2539.24
 20
602.409
 10
2543.3
 20
604.609
 10
2548.300000000001
 20
605.342
 10
2555.36
 20
603.7219999999999
 10
2560.37
 20
599.0499999999999
 10
2563.47
 20
591.615
 10
2564.6
 20
579.797
 10
2564.15
 20
571.846
 10
2562.79
 20
565.591
 10
2560.54
 20
560.799
 10
2557.39
 20
557.235
 10
2553.31
 20
555.0229999999999
 10
2548.300000000001
 20
554.2849999999999
 10
2541.84
 20
555.581
 10
2536.94
 20
559.469
 10
2533.23
 20
567.672
 10
2531.99
 20
579.797
  0
LWPOLYLINE
  5
1AB2
330
22
100
AcDbEntity
  8
LAYER_1
  6
Continuous
 62
     1
100
AcDbPolyline
 90
       17
 70
   129
 43
0.0
 10
2538.3
 20
579.797
 10
2539.02
 20
569.5429999999999
 10
2541.18
 20
563.4089999999999
 10
2544.4
 20
560.3519999999999
 10
2548.300000000001
 20
559.333
 10
2552.19
 20
560.3559999999999
 10
2555.41
 20
563.4259999999999
 10
2557.57
 20
569.565
 10
2558.29
 20
579.797
 10
2557.57
 20
590.071
 10
2555.41
 20
596.2019999999999
 10
2552.17
 20
599.246
 10
2548.23
 20
600.2609999999999
 10
2544.43
 20
599.365
 10
2541.47
 20
596.6789999999999
 10
2539.1
 20
590.174
 10
2538.3
 20
579.797
  0
LWPOLYLINE
  5
1AC5
330
22
100
AcDbEntity
  8
LAYER_1
  6
Continuous
 62
     1
100
AcDbPolyline
 90
       36
 70
   129
 43
0.0
 10
2572.550000000001
 20
555.138
 10
2572.550000000001
 20
591.359
 10
2578.04
 20
591.359
 10
2578.04
 20
586.2769999999999
 10
2582.57
 20
590.5569999999999
 10
2589.02
 20
592.177
 10
2595.62
 20
590.5059999999999
 10
2597.81
 20
588.5019999999999
 10
2599.25
 20
585.834
 10
2604.2
 20
590.591
 10
2610.44
 20
592.177
 10
2615.2
 20
591.431
 10
2618.73
 20
589.193
 10
2620.900000000001
 20
585.403
 10
2621.62
 20
580.0009999999999
 10
2621.62
 20
555.138
 10
2615.52
 20
555.138
 10
2615.52
 20
577.955
 10
2614.92
 20
583.259
 10
2612.76
 20
585.868
 10
2609.07
 20
586.857
 10
2605.58
 20
586.221
 10
2602.73
 20
584.316
 10
2600.84
 20
581.0119999999999
 10
2600.210000000001
 20
576.181
 10
2600.210000000001
 20
555.138
 10
2594.07
 20
555.138
 10
2594.07
 20
578.6709999999999
 10
2592.57
 20
584.8099999999999
 10
2590.590000000001
 20
586.345
 10
2587.65
 20
586.857
 10
2582.86
 20
585.4919999999999
 10
2579.67
 20
581.5019999999999
 10
2578.68
 20
573.9299999999999
 10
2578.68
 20
555.138
 10
2572.550000000001
 20
555.138
  0
LWPOLYLINE
  5
1AEB
330
22
100
AcDbEntity
  8
LAYER_1
  6
Continuous
 62
     1
100
AcDbPolyline
 90
       36
 70
   129
 43
0.0
 10
2630.73
 20
555.138
 10
2630.73
 20
591.359
 10
2636.22
 20
591.359
 10
2636.22
 20
586.2769999999999
 10
2640.76
 20
590.5569999999999
 10
2647.2
 20
592.177
 10
2653.8
 20
590.5059999999999
 10
2656.0
 20
588.5019999999999
 10
2657.44
 20
585.834
 10
2662.380000000001
 20
590.591
 10
2668.62
 20
592.177
 10
2673.39
 20
591.431
 10
2676.91
 20
589.193
 10
2679.09
 20
585.403
 10
2679.81
 20
580.0009999999999
 10
2679.81
 20
555.138
 10
2673.71
 20
555.138
 10
2673.71
 20
577.955
 10
2673.11
 20
583.259
 10
2670.94
 20
585.868
 10
2667.260000000001
 20
586.857
 10
2663.76
 20
586.221
 10
2660.92
 20
584.316
 10
2659.02
 20
581.0119999999999
 10
2658.39
 20
576.181
 10
2658.39
 20
555.138
 10
2652.25
 20
555.138
 10
2652.25
 20
578.6709999999999
 10
2650.75
 20
584.8099999999999
 10
2648.77
 20
586.345
 10
2645.84
 20
586.857
 10
2641.05
 20
585.4919999999999
 10
2637.86
 20
581.5019999999999
 10
2636.87
 20
573.9299999999999
 10
2636.87
 20
555.138
 10
2630.73
 20
555.138
  0
VIEWPORT
  5
1B16
330
1E
100
AcDbEntity
 67
     1
  8
0
  6
Continuous
100
AcDbViewport
 10
5.658750158595287
 20
3.946250085755595
 30
0.0
 40
16.47900406328505
 41
8.747896837850255
 68
     1
 69
     1
 12
5.658750158595287
 22
3.946250085755595
 13
0.0
 23
0.0
 14
10.0
 24
10.0
 15
10.0
 25
10.0
 16
0.0
 26
0.0
 36
1.0
 17
0.0
 27
0.0
 37
0.0
 42
50.0
 43
0.0
 44
0.0
 45
8.747896837850255
 50
0.0
 51
0.0
 72
   100
 90
    32800
  1

281
     0
 71
     1
 74
     0
110
0.0
120
0.0
130
0.0
111
1.0
121
0.0
131
0.0
112
0.0
122
1.0
132
0.0
 79
     0
146
0.0
170
     0
  0
VIEWPORT
  5
1B19
330
1E
100
AcDbEntity
 67
     1
  8
LAYER_1
  6
Continuous
100
AcDbViewport
 10
5.655416888514841
 20
3.915416753198218
 30
0.0
 40
9.048667021623746
 41
6.264666805117148
 68
     2
 69
     2
 12
1120.30765
 22
1020.77895
 13
0.0
 23
0.0
 14
1.0
 24
1.0
 15
0.0
 25
0.0
 16
0.0
 26
0.0
 36
1.0
 17
0.0
 27
0.0
 37
0.0
 42
50.0
 43
0.0
 44
0.0
 45
2549.011703892693
 50
0.0
 51
0.0
 72
   100
 90
    32800
  1

281
     0
 71
     1
 74
     0
110
0.0
120
0.0
130
0.0
111
1.0
121
0.0
131
0.0
112
0.0
122
1.0
132
0.0
 79
     0
146
0.0
170
     0
  0
ENDSEC
  0
SECTION
  2
OBJECTS
  0
DICTIONARY
  5
C
330
0
100
AcDbDictionary
281
     1
  3
ACAD_COLOR
350
1B
  3
ACAD_GROUP
350
D
  3
ACAD_LAYOUT
350
19
  3
ACAD_MATERIAL
350
1A
  3
ACAD_MLINESTYLE
350
16
  3
ACAD_PLOTSETTINGS
350
18
  3
ACAD_PLOTSTYLENAME
350
E
  3
ACAD_TABLESTYLE
350
1C
  3
AcDbVariableDictionary
350
1B1A
  0
DICTIONARY
  5
1B
102
{ACAD_REACTORS
330
C
102
}
330
C
100
AcDbDictionary
281
     1
  0
DICTIONARY
  5
D
102
{ACAD_REACTORS
330
C
102
}
330
C
100
AcDbDictionary
281
     1
  0
DICTIONARY
  5
19
102
{ACAD_REACTORS
330
C
102
}
330
C
100
AcDbDictionary
281
     1
  3
Layout1
350
21
  3
Model
350
25
  0
DICTIONARY
  5
1A
102
{ACAD_REACTORS
330
C
102
}
330
C
100
AcDbDictionary
281
     1
  0
DICTIONARY
  5
16
102
{ACAD_REACTORS
330
C
102
}
330
C
100
AcDbDictionary
281
     1
  3
Standard
350
17
  0
DICTIONARY
  5
18
102
{ACAD_REACTORS
330
C
102
}
330
C
100
AcDbDictionary
281
     1
  0
ACDBDICTIONARYWDFLT
  5
E
102
{ACAD_REACTORS
330
C
102
}
330
C
100
AcDbDictionary
281
     1
  3
Normal
350
F
100
AcDbDictionaryWithDefault
340
F
  0
DICTIONARY
  5
1C
102
{ACAD_REACTORS
330
C
102
}
330
C
100
AcDbDictionary
281
     1
  3
Standard
350
1D
  0
DICTIONARY
  5
1B1A
102
{ACAD_REACTORS
330
C
102
}
330
C
100
AcDbDictionary
281
     1
  3
CTABLESTYLE
350
1B1B
  0
LAYOUT
  5
21
102
{ACAD_REACTORS
330
19
102
}
330
19
100
AcDbPlotSettings
  1

  2
HP LaserJet 1020
  4
A4
  6

 40
4.773083209991455
 41
4.942401409149169
 42
6.33941650390625
 43
4.7730712890625
 44
210.0156707763672
 45
297.0106506347656
 46
0.0
 47
0.0
 48
0.0
 49
0.0
140
0.0
141
0.0
142
1.0
143
1.0
 70
   688
 72
     0
 73
     1
 74
     5
  7

 75
    16
147
1.0
 76
     0
 77
     2
 78
   300
148
0.0
149
0.0
100
AcDbLayout
  1
Layout1
 70
     1
 71
     1
 10
-0.1879161924827756
 20
-0.1879166618106872
 11
11.50541650967335
 21
8.080416833321878
 12
0.0
 22
0.0
 32
0.0
 14
1.131083377702967
 24
0.783083350639644
 34
0.0
 15
10.17975039932671
 25
7.047750155756792
 35
0.0
146
0.0
 13
0.0
 23
0.0
 33
0.0
 16
1.0
 26
0.0
 36
0.0
 17
0.0
 27
1.0
 37
0.0
 76
     0
330
1E
331
1B16
1001
ACAD_PSEXT
1000
HP LaserJet 1020
1000
HP LaserJet 1020
1000
USB001
1000

1070
     0
  0
LAYOUT
  5
25
102
{ACAD_REACTORS
330
19
102
}
330
19
100
AcDbPlotSettings
  1

  2
HP LaserJet 1020
  4

  6

 40
0.0
 41
0.0
 42
0.0
 43
0.0
 44
0.0
 45
0.0
 46
0.0
 47
0.0
 48
0.0
 49
0.0
140
0.0
141
0.0
142
1.0
143
1.0
 70
  1712
 72
     0
 73
     0
 74
     0
  7

 75
     0
147
1.0
 76
     0
 77
     2
 78
   300
148
0.0
149
0.0
100
AcDbLayout
  1
Model
 70
     1
 71
     0
 10
0.0
 20
0.0
 11
12.0
 21
9.0
 12
0.0
 22
0.0
 32
0.0
 14
0.0
 24
0.0
 34
0.0
 15
0.0
 25
0.0
 35
0.0
146
0.0
 13
0.0
 23
0.0
 33
0.0
 16
1.0
 26
0.0
 36
0.0
 17
0.0
 27
1.0
 37
0.0
 76
     0
330
22
  0
MLINESTYLE
  5
17
102
{ACAD_REACTORS
330
16
102
}
330
16
100
AcDbMlineStyle
  2
STANDARD
 70
     0
  3

 62
   256
 51
90.0
 52
90.0
 71
     2
 49
0.5
 62
   256
  6
BYLAYER
 49
-0.5
 62
   256
  6
BYLAYER
  0
ACDBPLACEHOLDER
  5
F
102
{ACAD_REACTORS
330
E
102
}
330
E
  0
TABLESTYLE
  5
1D
102
{ACAD_REACTORS
330
1C
102
}
330
1C
100
AcDbTableStyle
  3
Standard
 70
     0
 71
     0
 40
0.06
 41
0.06
280
     0
281
     0
  7
STANDARD
140
0.18
170
     2
 62
     0
 63
     7
283
     0
274
    -2
284
     1
 64
     0
275
    -2
285
     1
 65
     0
276
    -2
286
     1
 66
     0
277
    -2
287
     1
 67
     0
278
    -2
288
     1
 68
     0
279
    -2
289
     1
 69
     0
  7
STANDARD
140
0.25
170
     5
 62
     0
 63
     7
283
     0
274
    -2
284
     1
 64
     0
275
    -2
285
     1
 65
     0
276
    -2
286
     1
 66
     0
277
    -2
287
     1
 67
     0
278
    -2
288
     1
 68
     0
279
    -2
289
     1
 69
     0
  7
STANDARD
140
0.18
170
     5
 62
     0
 63
     7
283
     0
274
    -2
284
     1
 64
     0
275
    -2
285
     1
 65
     0
276
    -2
286
     1
 66
     0
277
    -2
287
     1
 67
     0
278
    -2
288
     1
 68
     0
279
    -2
289
     1
 69
     0
  0
DICTIONARYVAR
  5
1B1B
102
{ACAD_REACTORS
330
1B1A
102
}
330
1B1A
100
DictionaryVariables
280
     0
  1
STANDARD
  0
ENDSEC
  0
EOF
